  0
SECTION
  2
HEADER
  9
$ACADVER
  1
AC1018
  9
$ACADMAINTVER
 70
     0
  9
$DWGCODEPAGE
  3
ANSI_932
  9
$INSBASE
 10
0.000000
 20
0.000000
 30
0.000000
  9
$EXTMIN
 10
0.000000
 20
0.000000
 30
0.000000
  9
$EXTMAX
 10
277.000000
 20
170.000000
 30
0.000000
  9
$LIMMIN
 10
0.000000
 20
0.000000
  9
$LIMMAX
 10
277.000000
 20
170.000000
  9
$ORTHOMODE
 70
     0
  9
$REGENMODE
 70
     1
  9
$FILLMODE
 70
     1
  9
$QTEXTMODE
 70
     0
  9
$MIRRTEXT
 70
     1
  9
$LTSCALE
 40
1.000000
  9
$ATTMODE
 70
     1
  9
$TEXTSIZE
 40
2.500000
  9
$TRACEWID
 40
1.000000
  9
$TEXTSTYLE
  7
BIGFONT
  9
$CLAYER
  8
B
  9
$CELTYPE
  6
BYLAYER
  9
$CECOLOR
 62
   256
  9
$CELTSCALE
 40
1.000000
  9
$DISPSILH
 70
     0
  9
$DIMSCALE
 40
1.000000
  9
$DIMASZ
 40
2.500000
  9
$DIMEXO
 40
0.625000
  9
$DIMDLI
 40
3.750000
  9
$DIMRND
 40
0.000000
  9
$DIMDLE
 40
0.000000
  9
$DIMEXE
 40
1.250000
  9
$DIMTP
 40
0.000000
  9
$DIMTM
 40
0.000000
  9
$DIMTXT
 40
2.500000
  9
$DIMCEN
 40
2.500000
  9
$DIMTSZ
 40
0.000000
  9
$DIMTOL
 70
     0
  9
$DIMLIM
 70
     0
  9
$DIMTIH
 70
     0
  9
$DIMTOH
 70
     0
  9
$DIMSE1
 70
     0
  9
$DIMSE2
 70
     0
  9
$DIMTAD
 70
     1
  9
$DIMZIN
 70
     8
  9
$DIMBLK
  1

  9
$DIMASO
 70
     1
  9
$DIMSHO
 70
     1
  9
$DIMPOST
  1

  9
$DIMAPOST
  1

  9
$DIMALT
 70
     0
  9
$DIMALTD
 70
     4
  9
$DIMALTF
 40
0.039400
  9
$DIMLFAC
 40
1.000000
  9
$DIMTOFL
 70
     1
  9
$DIMTVP
 40
0.000000
  9
$DIMTIX
 70
     0
  9
$DIMSOXD
 70
     0
  9
$DIMSAH
 70
     0
  9
$DIMBLK1
  1

  9
$DIMBLK2
  1

  9
$DIMSTYLE
  2
STANDARD
  9
$DIMCLRD
 70
     0
  9
$DIMCLRE
 70
     0
  9
$DIMCLRT
 70
     0
  9
$DIMTFAC
 40
1.000000
  9
$DIMGAP
 40
0.625000
  9
$DIMJUST
 70
     0
  9
$DIMSD1
 70
     0
  9
$DIMSD2
 70
     0
  9
$DIMTOLJ
 70
     1
  9
$DIMTZIN
 70
     0
  9
$DIMALTZ
 70
     0
  9
$DIMALTTZ
 70
     0
  9
$DIMUPT
 70
     0
  9
$DIMDEC
 70
     4
  9
$DIMTDEC
 70
     4
  9
$DIMALTU
 70
     8
  9
$DIMALTTD
 70
     4
  9
$DIMTXSTY
  7
STANDARD
  9
$DIMAUNIT
 70
     0
  9
$DIMADEC
 70
     0
  9
$DIMALTRND
 40
0.000000
  9
$DIMAZIN
 70
     0
  9
$DIMDSEP
 70
    46
  9
$DIMATFIT
 70
     3
  9
$DIMFRAC
 70
     0
  9
$DIMLDRBLK
  1

  9
$DIMLUNIT
 70
     2
  9
$DIMLWD
 70
-2
  9
$DIMLWE
 70
-2
  9
$DIMTMOVE
 70
     0
  9
$LUNITS
 70
     2
  9
$LUPREC
 70
     4
  9
$AXISMODE
 70
     0
  9
$SKETCHINC
 40
1.000000
  9
$FILLETRAD
 40
10.000000
  9
$AUNITS
 70
     0
  9
$AUPREC
 70
     0
  9
$MENU
  1
acad
  9
$ELEVATION
 40
0.000000
  9
$PELEVATION
 40
0.000000
  9
$THICKNESS
 40
0.000000
  9
$LIMCHECK
 70
     0
  9
$BLIPMODE
 70
     0
  9
$CHAMFERA
 40
10.000000
  9
$CHAMFERB
 40
10.000000
  9
$CHAMFERC
 40
20.000000
  9
$CHAMFERD
 40
0.000000
  9
$SKPOLY
 70
     0
  9
$TDCREATE
 40
2447851.677998
  9
$TDUCREATE
 40
2447851.677998
  9
$TDUPDATE
 40
2447851.677998
  9
$TDUUPDATE
 40
2447851.677998
  9
$TDINDWG
 40
0.000000
  9
$TDUSRTIMER
 40
0.000000
  9
$USRTIMER
 70
     1
  9
$ANGBASE
 50
0.000000
  9
$ANGDIR
 70
     0
  9
$PDMODE
 70
     0
  9
$PDSIZE
 40
0.000000
  9
$PLINEWID
 40
0.000000
  9
$SPLFRAME
 70
     0
  9
$SPLINETYPE
 70
     6
  9
$SPLINESEGS
 70
     8
  9
$HANDSEED
  5
FFFFFFF
  9
$SURFTAB1
 70
     6
  9
$SURFTAB2
 70
     6
  9
$SURFTYPE
 70
     6
  9
$SURFU
 70
     6
  9
$SURFV
 70
     6
  9
$UCSBASE
  2

  9
$UCSNAME
  2

  9
$UCSORG
 10
0.000000
 20
0.000000
 30
0.000000
  9
$UCSXDIR
 10
1.000000
 20
0.000000
 30
0.000000
  9
$UCSYDIR
 10
0.000000
 20
1.000000
 30
0.000000
  9
$UCSORTHOREF
  2

  9
$UCSORTHOVIEW
 70
     0
  9
$UCSORGTOP
 10
0.000000
 20
0.000000
 30
0.000000
  9
$UCSORGBOTTOM
 10
0.000000
 20
0.000000
 30
0.000000
  9
$UCSORGLEFT
 10
0.000000
 20
0.000000
 30
0.000000
  9
$UCSORGRIGHT
 10
0.000000
 20
0.000000
 30
0.000000
  9
$UCSORGFRONT
 10
0.000000
 20
0.000000
 30
0.000000
  9
$UCSORGBACK
 10
0.000000
 20
0.000000
 30
0.000000
  9
$PUCSBASE
  2

  9
$PUCSNAME
  2

  9
$PUCSORG
 10
0.000000
 20
0.000000
 30
0.000000
  9
$PUCSXDIR
 10
1.000000
 20
0.000000
 30
0.000000
  9
$PUCSYDIR
 10
0.000000
 20
1.000000
 30
0.000000
  9
$PUCSORTHOREF
  2

  9
$PUCSORTHOVIEW
 70
     0
  9
$PUCSORGTOP
 10
0.000000
 20
0.000000
 30
0.000000
  9
$PUCSORGBOTTOM
 10
0.000000
 20
0.000000
 30
0.000000
  9
$PUCSORGLEFT
 10
0.000000
 20
0.000000
 30
0.000000
  9
$PUCSORGRIGHT
 10
0.000000
 20
0.000000
 30
0.000000
  9
$PUCSORGFRONT
 10
0.000000
 20
0.000000
 30
0.000000
  9
$PUCSORGBACK
 10
0.000000
 20
0.000000
 30
0.000000
  9
$USERI1
 70
     0
  9
$USERI2
 70
     0
  9
$USERI3
 70
     0
  9
$USERI4
 70
     0
  9
$USERI5
 70
     0
  9
$USERR1
 40
0.000000
  9
$USERR2
 40
0.000000
  9
$USERR3
 40
0.000000
  9
$USERR4
 40
0.000000
  9
$USERR5
 40
0.000000
  9
$WORLDVIEW
 70
     1
  9
$SHADEDGE
 70
     3
  9
$SHADEDIF
 70
    70
  9
$TILEMODE
 70
     1
  9
$MAXACTVP
 70
    48
  9
$PINSBASE
 10
0.000000
 20
0.000000
 30
0.000000
  9
$PLIMCHECK
 70
     0
  9
$PEXTMIN
 10
100000000000000000000.000000
 20
100000000000000000000.000000
 30
100000000000000000000.000000
  9
$PEXTMAX
 10
-100000000000000000000.000000
 20
-100000000000000000000.000000
 30
-100000000000000000000.000000
  9
$PLIMMIN
 10
0.000000
 20
0.000000
  9
$PLIMMAX
 10
277.000000
 20
170.000000
  9
$UNITMODE
 70
     0
  9
$VISRETAIN
 70
     1
  9
$PLINEGEN
 70
     0
  9
$PSLTSCALE
 70
     1
  9
$TREEDEPTH
 70
  3020
  9
$CMLSTYLE
  2
STANDARD
  9
$CMLJUST
 70
     0
  9
$CMLSCALE
 40
20.000000
  9
$PROXYGRAPHICS
 70
     1
  9
$MEASUREMENT
 70
     1
  9
$CELWEIGHT
370
-1
  9
$ENDCAPS
280
     0
  9
$JOINSTYLE
280
     0
  9
$LWDISPLAY
290
     1
  9
$INSUNITS
 70
     0
  9
$HYPERLINKBASE
  1

  9
$STYLESHEET
  1

  9
$XEDIT
290
     1
  9
$CEPSNTYPE
380
     0
  9
$PSTYLEMODE
290
     1
  9
$FINGERPRINTGUID
  2
{01801163-5BC0-459E-B9C7-2188C09ED432}
  9
$VERSIONGUID
  2
{7F326DDD-95DF-42AD-9861-A0CD9F0961F2}
  9
$EXTNAMES
290
     1
  9
$PSVPSCALE
 40
0.0
  9
$OLESTARTUP
290
     0
  9
$SORTENTS
280
   127
  9
$INDEXCTL
280
     0
  9
$HIDETEXT
280
     1
  9
$XCLIPFRAME
290
     0
  9
$HALOGAP
280
     0
  9
$OBSCOLOR
 70
   257
  9
$OBSLTYPE
280
     0
  9
$INTERSECTIONDISPLAY
280
     0
  9
$INTERSECTIONCOLOR
 70
   257
  9
$DIMASSOC
280
     2
  9
$PROJECTNAME
  1

  0
ENDSEC
  0
SECTION
  2
TABLES
  0
TABLE
  2
VPORT
  5
a2
100
AcDbSymbolTable
 70
     2
  0
VPORT
  5
a5
100
AcDbSymbolTableRecord
100
AcDbViewportTableRecord
  2
*ACTIVE
 70
     0
 10
0.000000
 20
0.000000
 11
1.000000
 21
1.000000
 12
300.000000
 22
200.000000
 13
0.000000
 23
0.000000
 14
10.000000
 24
10.000000
 15
10.000000
 25
10.000000
 16
0.000000
 26
0.000000
 36
1.000000
 17
0.000000
 27
0.000000
 37
0.000000
 40
300.000000
 41
1.600432
 42
50.000000
 43
0.000000
 44
0.000000
 50
0.000000
 51
0.000000
 71
     0
 72
   100
 73
     1
 74
     1
 75
     0
 76
     0
 77
     0
 78
     0
  0
ENDTAB
  0
TABLE
  2
LTYPE
  5
a8
100
AcDbSymbolTable
 70
    11
  0
LTYPE
  5
ab
100
AcDbSymbolTableRecord
100
AcDbLinetypeTableRecord
  2
BYBLOCK
 70
    64
  3
BYBLOCK
 72
    65
 73
     0
 40
0.000000
  0
LTYPE
  5
ae
100
AcDbSymbolTableRecord
100
AcDbLinetypeTableRecord
  2
BYLAYER
 70
    64
  3
BYLAYER
 72
    65
 73
     0
 40
0.000000
  0
LTYPE
  5
b1
100
AcDbSymbolTableRecord
100
AcDbLinetypeTableRecord
  2
CONTINUOUS
 70
    64
  3
実線
 72
    65
 73
     0
 40
0.000000
  0
LTYPE
  5
b4
100
AcDbSymbolTableRecord
100
AcDbLinetypeTableRecord
  2
DASHED
 70
    64
  3
__ __ __ __ __ __ __ __ __ __ __ __ __ __ __
 72
    65
 73
     2
 40
0.750000
 49
0.500000
 74
     0
 49
-0.250000
 74
     0
  0
LTYPE
  5
b7
100
AcDbSymbolTableRecord
100
AcDbLinetypeTableRecord
  2
HIDDEN
 70
    64
  3
_ _ _ _ _ _ _ _ _ _ _ _ _ _ _ _ _ _ _ _ _ _ _
 72
    65
 73
     2
 40
0.375000
 49
0.250000
 74
     0
 49
-0.125000
 74
     0
  0
LTYPE
  5
ba
100
AcDbSymbolTableRecord
100
AcDbLinetypeTableRecord
  2
CENTER
 70
    64
  3
____ _ ____ _ ____ _ ____ _ ____ _ ____ _ ____
 72
    65
 73
     4
 40
2.000000
 49
1.250000
 74
     0
 49
-0.250000
 74
     0
 49
0.250000
 74
     0
 49
-0.250000
 74
     0
  0
LTYPE
  5
bd
100
AcDbSymbolTableRecord
100
AcDbLinetypeTableRecord
  2
PHANTOM
 70
    64
  3
_____ _ _ _____ _ _ _____ _ _ _____ _ _ ____
 72
    65
 73
     6
 40
2.500000
 49
1.250000
 74
     0
 49
-0.250000
 74
     0
 49
0.250000
 74
     0
 49
-0.250000
 74
     0
 49
0.250000
 74
     0
 49
-0.250000
 74
     0
  0
LTYPE
  5
c0
100
AcDbSymbolTableRecord
100
AcDbLinetypeTableRecord
  2
DOT
 70
    64
  3
...............................................
 72
    65
 73
     2
 40
0.250000
 49
0.000000
 74
     0
 49
-0.250000
 74
     0
  0
LTYPE
  5
c3
100
AcDbSymbolTableRecord
100
AcDbLinetypeTableRecord
  2
DASHDOT
 70
    64
  3
__ . __ . __ . __ . __ . __ . __ . __ . __ . __
 72
    65
 73
     4
 40
1.000000
 49
0.500000
 74
     0
 49
-0.250000
 74
     0
 49
0.000000
 74
     0
 49
-0.250000
 74
     0
  0
LTYPE
  5
c6
100
AcDbSymbolTableRecord
100
AcDbLinetypeTableRecord
  2
BORDER
 70
    64
  3
__ __ . __ __ . __ __ . __ __ . __ __ . __ __
 72
    65
 73
     6
 40
1.750000
 49
0.500000
 74
     0
 49
-0.250000
 74
     0
 49
0.500000
 74
     0
 49
-0.250000
 74
     0
 49
0.000000
 74
     0
 49
-0.250000
 74
     0
  0
LTYPE
  5
c9
100
AcDbSymbolTableRecord
100
AcDbLinetypeTableRecord
  2
DIVIDE
 70
    64
  3
__ . . __ . . __ . . __ . . __ . . __ . . __
 72
    65
 73
     6
 40
1.250000
 49
0.500000
 74
     0
 49
-0.250000
 74
     0
 49
0.000000
 74
     0
 49
-0.250000
 74
     0
 49
0.000000
 74
     0
 49
-0.250000
 74
     0
  0
ENDTAB
  0
TABLE
  2
LAYER
  5
cc
100
AcDbSymbolTable
 70
     3
  0
LAYER
  5
cf
100
AcDbSymbolTableRecord
100
AcDbLayerTableRecord
  2
0
 70
     0
 62
     7
  6
CONTINUOUS
370
 65533
390
	F
  0
LAYER
  5
d2
100
AcDbSymbolTableRecord
100
AcDbLayerTableRecord
  2
B
 70
     0
 62
     7
  6
CONTINUOUS
370
 65533
390
	F
  0
LAYER
  5
d5
100
AcDbSymbolTableRecord
100
AcDbLayerTableRecord
  2
C
 70
     0
 62
     7
  6
CONTINUOUS
370
 65533
390
	F
  0
LAYER
  5
d8
100
AcDbSymbolTableRecord
100
AcDbLayerTableRecord
  2
D
 70
     0
 62
     7
  6
CONTINUOUS
370
 65533
390
	F
  0
LAYER
  5
db
100
AcDbSymbolTableRecord
100
AcDbLayerTableRecord
  2
E
 70
     0
 62
     7
  6
CONTINUOUS
370
 65533
390
	F
  0
LAYER
  5
de
100
AcDbSymbolTableRecord
100
AcDbLayerTableRecord
  2
F
 70
     0
 62
     7
  6
CONTINUOUS
370
 65533
390
	F
  0
LAYER
  5
e1
100
AcDbSymbolTableRecord
100
AcDbLayerTableRecord
  2
G
 70
     0
 62
     7
  6
CONTINUOUS
370
 65533
390
	F
  0
LAYER
  5
e4
100
AcDbSymbolTableRecord
100
AcDbLayerTableRecord
  2
H
 70
     0
 62
     7
  6
CONTINUOUS
370
 65533
390
	F
  0
LAYER
  5
e7
100
AcDbSymbolTableRecord
100
AcDbLayerTableRecord
  2
I
 70
     0
 62
     7
  6
CONTINUOUS
370
 65533
390
	F
  0
LAYER
  5
ea
100
AcDbSymbolTableRecord
100
AcDbLayerTableRecord
  2
J
 70
     0
 62
     7
  6
CONTINUOUS
370
 65533
390
	F
  0
LAYER
  5
ed
100
AcDbSymbolTableRecord
100
AcDbLayerTableRecord
  2
K
 70
     0
 62
     7
  6
CONTINUOUS
370
 65533
390
	F
  0
LAYER
  5
f0
100
AcDbSymbolTableRecord
100
AcDbLayerTableRecord
  2
L
 70
     0
 62
     7
  6
CONTINUOUS
370
 65533
390
	F
  0
LAYER
  5
f3
100
AcDbSymbolTableRecord
100
AcDbLayerTableRecord
  2
M
 70
     0
 62
     7
  6
CONTINUOUS
370
 65533
390
	F
  0
LAYER
  5
f6
100
AcDbSymbolTableRecord
100
AcDbLayerTableRecord
  2
N
 70
     0
 62
     7
  6
CONTINUOUS
370
 65533
390
	F
  0
ENDTAB
  0
TABLE
  2
STYLE
  5
f9
100
AcDbSymbolTable
 70
     2
  0
STYLE
  5
fc
100
AcDbSymbolTableRecord
100
AcDbTextStyleTableRecord
  2
STANDARD
 70
     0
 40
0.000000
 41
0.500000
 50
0.000000
 71
     0
 42
0.300000
  3
txt
  4

  0
STYLE
  5
ff
100
AcDbSymbolTableRecord
100
AcDbTextStyleTableRecord
  2
BIGFONT
 70
    64
 40
0.000000
 41
1.000000
 50
0.000000
 71
     0
 42
0.200000
  3

  4
bigfont
  0
ENDTAB
  0
TABLE
  2
VIEW
  5
102
100
AcDbSymbolTable
 70
     0
  0
ENDTAB
  0
TABLE
  2
UCS
  5
105
100
AcDbSymbolTable
 70
     0
  0
ENDTAB
  0
TABLE
  2
APPID
  5
108
100
AcDbSymbolTable
 70
     3
  0
APPID
  5
10b
100
AcDbSymbolTableRecord
100
AcDbRegAppTableRecord
  2
ACAD
 70
     0
  0
APPID
  5
10e
100
AcDbSymbolTableRecord
100
AcDbRegAppTableRecord
  2
CONTENTTABDATA
 70
     0
  0
APPID
  5
111
100
AcDbSymbolTableRecord
100
AcDbRegAppTableRecord
  2
CONTENTCURRENTTAB
 70
     0
  0
ENDTAB
  0
TABLE
  2
DIMSTYLE
  5
114
330
     0
100
AcDbSymbolTable
 70
     2
100
AcDbDimStyleTable
 70
     1
  0
DIMSTYLE
105
117
100
AcDbSymbolTableRecord
100
AcDbDimStyleTableRecord
  2
STANDARD
 70
     0
  3

  4

  5

  6

  7

 40
1.000000
 41
0.180000
 42
0.062500
 43
0.380000
 44
0.180000
 45
0.000000
 46
0.000000
 47
0.000000
 48
0.000000
140
0.180000
141
0.090000
142
0.000000
143
25.400000
144
1.000000
145
0.000000
146
1.000000
147
0.090000
 71
     0
 72
     0
 73
     1
 74
     1
 75
     0
 76
     0
 77
     0
 78
     0
170
     0
171
     2
172
     0
173
     0
174
     0
175
     0
176
     0
177
     0
178
     0
270
     2
271
     4
272
     4
273
     2
274
     2
340
fc
275
     0
280
     0
281
     0
282
     0
283
     1
284
     0
285
     0
286
     0
287
     3
288
     0
  0
ENDTAB
  0
TABLE
  2
BLOCK_RECORD
  5
11a
100
AcDbSymbolTable
 70
     0
  0
BLOCK_RECORD
  5
11d
100
AcDbSymbolTableRecord
100
AcDbBlockTableRecord
  2
*MODEL_SPACE
  0
BLOCK_RECORD
  5
120
100
AcDbSymbolTableRecord
100
AcDbBlockTableRecord
  2
*PAPER_SPACE
  0
ENDTAB
  0
ENDSEC
  0
SECTION
  2
BLOCKS
  0
BLOCK
  5
123
330
124
100
AcDbEntity
  8
0
100
AcDbBlockBegin
  2
*Model_Space
 70
     0
 10
0.000000
 20
0.000000
 30
0.000000
  3
*Model_Space
  1
 
  0
ENDBLK
  5
126
330
124
100
AcDbEntity
  8
0
100
AcDbBlockEnd
  0
BLOCK
  5
129
330
12a
100
AcDbEntity
 67
     1
  8
0
100
AcDbBlockBegin
  2
*Paper_Space
 70
     0
 10
0.000000
 20
0.000000
 30
0.000000
  3
*Paper_Space
  1
 
  0
ENDBLK
  5
12c
330
12d
100
AcDbEntity
 67
     1
  8
0
100
AcDbBlockEnd
  0
ENDSEC
  0
SECTION
  2
ENTITIES
  0
LINE
  5
12f
100
AcDbEntity
  8
0
370
    20
100
AcDbLine
 10
113.825000
 20
24.625000
 11
116.475000
 21
24.625000
  0
LWPOLYLINE
  5
132
100
AcDbEntity
  8
0
100
AcDbPolyline
 90
     3
 70
     0
 43
0.200000
 10
113.350000
 20
22.150000
 10
113.350000
 20
24.625000
 10
113.925000
 20
24.625000
  0
LWPOLYLINE
  5
13b
100
AcDbEntity
  8
0
100
AcDbPolyline
 90
     3
 70
     0
 43
0.200000
 10
143.550000
 20
84.900000
 10
143.550000
 20
60.550000
 10
141.800000
 20
60.550000
  0
LWPOLYLINE
  5
144
100
AcDbEntity
  8
0
100
AcDbPolyline
 90
    12
 70
     0
 43
0.200000
 10
143.550000
 20
64.950000
 10
162.775000
 20
65.350000
 10
162.125000
 20
61.875000
 10
162.775000
 20
61.225000
 10
169.875000
 20
60.325000
 10
173.525000
 20
61.225000
 10
173.525000
 20
62.550000
 10
172.950000
 20
63.425000
 10
173.375000
 20
65.650000
 10
172.950000
 20
66.500000
 10
171.400000
 20
72.700000
 10
171.400000
 20
75.800000
  0
LWPOLYLINE
  5
15f
100
AcDbEntity
  8
0
100
AcDbPolyline
 90
     4
 70
     0
 43
0.200000
 10
171.400000
 20
75.800000
 10
169.450000
 20
76.550000
 10
168.150000
 20
74.925000
 10
143.550000
 20
79.925000
  0
LINE
  5
16a
100
AcDbEntity
  8
0
370
    20
100
AcDbLine
 10
131.400000
 20
103.600000
 11
130.400000
 21
103.600000
  0
LWPOLYLINE
  5
16d
100
AcDbEntity
  8
0
100
AcDbPolyline
 90
     4
 70
     0
 43
0.200000
 10
130.400000
 20
104.600000
 10
130.400000
 20
128.900000
 10
131.400000
 20
128.900000
 10
131.400000
 20
104.600000
  0
LWPOLYLINE
  5
178
100
AcDbEntity
  8
0
100
AcDbPolyline
 90
    32
 70
     0
 43
0.200000
 10
121.125000
 20
59.550000
 10
120.750000
 20
60.000000
 10
120.200000
 20
61.375000
 10
120.725000
 20
66.250000
 10
119.700000
 20
68.525000
 10
120.100000
 20
88.725000
 10
119.925000
 20
91.075000
 10
119.275000
 20
91.025000
 10
118.675000
 20
91.925000
 10
118.800000
 20
92.825000
 10
119.100000
 20
93.600000
 10
120.025000
 20
93.700000
 10
120.450000
 20
93.600000
 10
120.625000
 20
95.125000
 10
120.050000
 20
95.675000
 10
118.525000
 20
96.250000
 10
118.925000
 20
97.725000
 10
116.875000
 20
107.700000
 10
115.000000
 20
112.600000
 10
110.525000
 20
119.150000
 10
108.825000
 20
119.950000
 10
109.525000
 20
120.675000
 10
110.175000
 20
123.150000
 10
111.000000
 20
124.250000
 10
112.700000
 20
124.625000
 10
114.375000
 20
124.200000
 10
115.000000
 20
122.725000
 10
116.375000
 20
119.075000
 10
120.025000
 20
112.875000
 10
123.950000
 20
105.975000
 10
127.100000
 20
102.575000
 10
129.150000
 20
102.850000
  0
LWPOLYLINE
  5
1bb
100
AcDbEntity
  8
0
100
AcDbPolyline
 90
    16
 70
     0
 43
0.200000
 10
139.750000
 20
91.200000
 10
139.125000
 20
89.850000
 10
138.500000
 20
89.850000
 10
138.225000
 20
89.675000
 10
138.125000
 20
84.475000
 10
139.300000
 20
84.125000
 10
140.225000
 20
84.000000
 10
140.300000
 20
84.825000
 10
141.800000
 20
84.825000
 10
141.800000
 20
61.250000
 10
141.800000
 20
60.550000
 10
139.450000
 20
60.550000
 10
139.400000
 20
61.250000
 10
138.475000
 20
61.200000
 10
136.675000
 20
59.900000
 10
136.075000
 20
59.725000
  0
LWPOLYLINE
  5
1de
100
AcDbEntity
  8
0
100
AcDbPolyline
 90
   165
 70
     0
 43
0.200000
 10
85.325000
 20
35.900000
 10
84.300000
 20
37.350000
 10
83.050000
 20
39.750000
 10
81.825000
 20
43.000000
 10
80.950000
 20
46.100000
 10
80.925000
 20
48.475000
 10
81.250000
 20
51.250000
 10
82.375000
 20
53.675000
 10
83.875000
 20
55.725000
 10
86.550000
 20
58.300000
 10
89.875000
 20
61.150000
 10
93.175000
 20
64.350000
 10
94.425000
 20
69.150000
 10
94.825000
 20
69.100000
 10
95.725000
 20
68.325000
 10
95.875000
 20
68.150000
 10
98.600000
 20
73.900000
 10
100.875000
 20
80.425000
 10
102.225000
 20
85.625000
 10
102.850000
 20
89.575000
 10
103.125000
 20
90.275000
 10
103.500000
 20
95.575000
 10
103.700000
 20
107.725000
 10
103.800000
 20
113.350000
 10
103.750000
 20
117.600000
 10
104.150000
 20
121.075000
 10
104.850000
 20
124.475000
 10
105.775000
 20
126.825000
 10
106.650000
 20
128.375000
 10
109.325000
 20
131.925000
 10
112.300000
 20
134.900000
 10
115.150000
 20
136.250000
 10
118.425000
 20
136.925000
 10
122.100000
 20
137.025000
 10
127.950000
 20
135.400000
 10
131.300000
 20
133.800000
 10
132.175000
 20
133.250000
 10
133.750000
 20
132.250000
 10
134.075000
 20
131.225000
 10
133.800000
 20
130.275000
 10
133.250000
 20
129.550000
 10
132.525000
 20
128.800000
 10
131.325000
 20
129.025000
 10
130.325000
 20
129.250000
 10
128.050000
 20
130.750000
 10
126.425000
 20
132.025000
 10
125.175000
 20
132.875000
 10
122.900000
 20
133.600000
 10
120.600000
 20
133.725000
 10
116.375000
 20
132.875000
 10
114.300000
 20
131.375000
 10
112.200000
 20
129.475000
 10
110.900000
 20
127.350000
 10
110.800000
 20
126.650000
 10
111.050000
 20
125.825000
 10
112.750000
 20
124.350000
 10
113.625000
 20
124.400000
 10
114.600000
 20
123.550000
 10
115.075000
 20
122.825000
 10
113.975000
 20
120.125000
 10
112.625000
 20
119.250000
 10
111.725000
 20
119.250000
 10
109.600000
 20
118.725000
 10
108.400000
 20
117.950000
 10
108.250000
 20
116.900000
 10
108.225000
 20
112.575000
 10
108.325000
 20
106.575000
 10
108.250000
 20
103.375000
 10
107.925000
 20
97.925000
 10
107.675000
 20
93.875000
 10
106.750000
 20
87.575000
 10
106.025000
 20
83.425000
 10
105.325000
 20
80.425000
 10
104.750000
 20
78.375000
 10
103.850000
 20
75.425000
 10
102.600000
 20
71.550000
 10
101.550000
 20
68.375000
 10
101.700000
 20
68.200000
 10
102.500000
 20
68.025000
 10
103.025000
 20
67.575000
 10
103.500000
 20
66.950000
 10
103.025000
 20
66.475000
 10
104.025000
 20
65.275000
 10
104.200000
 20
64.675000
 10
103.250000
 20
64.375000
 10
103.500000
 20
63.525000
 10
103.625000
 20
62.675000
 10
103.625000
 20
62.400000
 10
103.400000
 20
62.175000
 10
102.675000
 20
62.275000
 10
101.900000
 20
62.425000
 10
101.375000
 20
62.475000
 10
100.400000
 20
62.250000
 10
100.200000
 20
61.800000
 10
100.225000
 20
60.600000
 10
100.025000
 20
60.275000
 10
100.475000
 20
59.750000
 10
100.700000
 20
59.200000
 10
100.350000
 20
58.800000
 10
100.400000
 20
58.625000
 10
100.625000
 20
58.225000
 10
100.900000
 20
57.700000
 10
100.500000
 20
57.075000
 10
101.050000
 20
56.475000
 10
100.725000
 20
55.575000
 10
101.200000
 20
55.075000
 10
101.125000
 20
54.325000
 10
100.975000
 20
54.175000
 10
101.225000
 20
53.725000
 10
101.375000
 20
53.250000
 10
101.275000
 20
52.550000
 10
100.950000
 20
52.525000
 10
101.200000
 20
51.775000
 10
101.300000
 20
51.150000
 10
100.900000
 20
50.800000
 10
100.775000
 20
50.650000
 10
100.900000
 20
50.200000
 10
100.975000
 20
49.650000
 10
100.625000
 20
49.350000
 10
100.550000
 20
49.075000
 10
100.375000
 20
48.550000
 10
100.300000
 20
48.125000
 10
99.900000
 20
47.700000
 10
99.775000
 20
47.300000
 10
99.625000
 20
46.475000
 10
99.325000
 20
46.000000
 10
99.025000
 20
45.675000
 10
98.750000
 20
45.300000
 10
98.675000
 20
45.075000
 10
98.600000
 20
44.825000
 10
98.500000
 20
44.800000
 10
98.175000
 20
44.700000
 10
97.975000
 20
44.375000
 10
97.750000
 20
44.025000
 10
97.650000
 20
43.700000
 10
97.325000
 20
43.450000
 10
96.925000
 20
43.050000
 10
96.550000
 20
42.650000
 10
96.050000
 20
42.225000
 10
95.350000
 20
41.775000
 10
95.175000
 20
41.525000
 10
95.125000
 20
41.300000
 10
94.775000
 20
41.150000
 10
94.450000
 20
40.975000
 10
94.125000
 20
40.800000
 10
93.700000
 20
40.400000
 10
93.450000
 20
40.325000
 10
93.000000
 20
40.050000
 10
92.775000
 20
39.975000
 10
92.525000
 20
39.650000
 10
92.350000
 20
39.600000
 10
91.975000
 20
39.650000
 10
91.600000
 20
39.600000
 10
91.475000
 20
39.400000
 10
91.400000
 20
39.050000
 10
91.100000
 20
38.875000
 10
90.625000
 20
38.725000
 10
90.500000
 20
38.900000
 10
90.100000
 20
38.625000
 10
89.700000
 20
38.400000
 10
89.175000
 20
38.125000
 10
88.525000
 20
37.775000
 10
87.375000
 20
37.200000
 10
86.025000
 20
36.375000
 10
85.300000
 20
36.025000
  0
LWPOLYLINE
  5
32b
100
AcDbEntity
  8
0
100
AcDbPolyline
 90
    83
 70
     0
 43
0.200000
 10
87.575000
 20
40.850000
 10
87.400000
 20
41.425000
 10
86.525000
 20
43.025000
 10
85.925000
 20
44.400000
 10
85.250000
 20
46.925000
 10
85.450000
 20
49.175000
 10
85.850000
 20
50.350000
 10
86.450000
 20
51.900000
 10
86.900000
 20
52.675000
 10
89.150000
 20
54.950000
 10
91.950000
 20
57.450000
 10
93.750000
 20
58.950000
 10
96.150000
 20
61.300000
 10
97.000000
 20
60.125000
 10
97.200000
 20
59.650000
 10
97.650000
 20
59.125000
 10
97.825000
 20
58.575000
 10
97.825000
 20
57.900000
 10
98.175000
 20
57.325000
 10
98.200000
 20
56.775000
 10
98.250000
 20
56.250000
 10
98.575000
 20
55.800000
 10
98.500000
 20
55.500000
 10
98.600000
 20
54.900000
 10
98.525000
 20
54.325000
 10
98.375000
 20
54.050000
 10
98.525000
 20
53.475000
 10
98.275000
 20
52.825000
 10
98.300000
 20
52.050000
 10
98.250000
 20
51.675000
 10
97.725000
 20
51.275000
 10
97.825000
 20
50.800000
 10
98.075000
 20
50.325000
 10
98.050000
 20
49.925000
 10
97.675000
 20
49.900000
 10
97.400000
 20
49.650000
 10
97.700000
 20
49.225000
 10
97.625000
 20
48.825000
 10
97.400000
 20
48.525000
 10
97.125000
 20
48.875000
 10
96.900000
 20
48.575000
 10
97.125000
 20
48.025000
 10
96.825000
 20
47.350000
 10
96.350000
 20
47.625000
 10
96.250000
 20
47.275000
 10
96.450000
 20
47.075000
 10
96.400000
 20
46.575000
 10
96.050000
 20
46.325000
 10
95.775000
 20
46.625000
 10
95.500000
 20
46.500000
 10
95.475000
 20
45.900000
 10
95.250000
 20
45.425000
 10
94.825000
 20
45.625000
 10
94.475000
 20
45.425000
 10
94.650000
 20
44.950000
 10
94.000000
 20
44.525000
 10
93.700000
 20
44.825000
 10
93.525000
 20
44.325000
 10
93.450000
 20
43.950000
 10
93.200000
 20
43.750000
 10
93.000000
 20
43.750000
 10
92.775000
 20
43.925000
 10
92.350000
 20
43.700000
 10
92.275000
 20
43.300000
 10
92.175000
 20
43.175000
 10
91.925000
 20
43.225000
 10
91.575000
 20
43.275000
 10
91.550000
 20
43.100000
 10
91.500000
 20
42.850000
 10
91.275000
 20
42.300000
 10
91.100000
 20
42.575000
 10
90.450000
 20
42.475000
 10
90.125000
 20
42.000000
 10
90.100000
 20
41.575000
 10
89.875000
 20
41.500000
 10
89.725000
 20
41.700000
 10
89.225000
 20
41.475000
 10
89.125000
 20
41.175000
 10
88.925000
 20
41.025000
 10
88.450000
 20
41.200000
 10
88.175000
 20
41.050000
 10
87.625000
 20
40.825000
 10
85.325000
 20
35.850000
  0
LWPOLYLINE
  5
3d4
100
AcDbEntity
  8
0
100
AcDbPolyline
 90
     2
 70
     0
 43
0.200000
 10
121.200000
 20
59.650000
 10
136.075000
 20
59.725000
  0
LWPOLYLINE
  5
3db
100
AcDbEntity
  8
0
100
AcDbPolyline
 90
     2
 70
     0
 43
0.200000
 10
140.200000
 20
84.525000
 10
140.200000
 20
60.550000
  0
LWPOLYLINE
  5
3e2
100
AcDbEntity
  8
0
100
AcDbPolyline
 90
     6
 70
     0
 43
0.200000
 10
139.400000
 20
61.250000
 10
135.850000
 20
70.675000
 10
135.300000
 20
74.950000
 10
137.750000
 20
79.525000
 10
138.925000
 20
79.525000
 10
138.175000
 20
84.750000
  0
LWPOLYLINE
  5
3f1
100
AcDbEntity
  8
0
100
AcDbPolyline
 90
     2
 70
     0
 43
0.200000
 10
149.175000
 20
78.675000
 10
149.175000
 20
65.025000
  0
LWPOLYLINE
  5
3f8
100
AcDbEntity
  8
0
100
AcDbPolyline
 90
     2
 70
     0
 43
0.200000
 10
150.975000
 20
78.125000
 10
150.975000
 20
65.025000
  0
LINE
  5
3ff
100
AcDbEntity
  8
0
370
    20
100
AcDbLine
 10
120.475000
 20
101.875000
 11
120.475000
 21
97.875000
  0
LWPOLYLINE
  5
402
100
AcDbEntity
  8
0
100
AcDbPolyline
 90
     2
 70
     0
 43
0.200000
 10
120.400000
 20
101.725000
 10
127.100000
 20
102.525000
  0
LINE
  5
409
100
AcDbEntity
  8
0
370
    20
100
AcDbLine
 10
118.925000
 20
97.775000
 11
135.975000
 21
97.775000
  0
LWPOLYLINE
  5
40c
100
AcDbEntity
  8
0
100
AcDbPolyline
 90
     4
 70
     1
 43
0.200000
 10
129.075000
 20
103.600000
 10
133.400000
 20
103.600000
 10
133.400000
 20
97.775000
 10
129.075000
 20
97.775000
  0
LWPOLYLINE
  5
417
100
AcDbEntity
  8
0
100
AcDbPolyline
 90
     4
 70
     1
 43
0.200000
 10
130.075000
 20
97.800000
 10
132.300000
 20
97.800000
 10
132.300000
 20
91.025000
 10
130.075000
 20
91.025000
  0
LWPOLYLINE
  5
422
100
AcDbEntity
  8
0
100
AcDbPolyline
 90
     4
 70
     1
 43
0.200000
 10
127.450000
 20
90.175000
 10
134.275000
 20
90.175000
 10
134.275000
 20
90.900000
 10
127.450000
 20
90.900000
  0
LWPOLYLINE
  5
42d
100
AcDbEntity
  8
0
100
AcDbPolyline
 90
    31
 70
     0
 43
0.200000
 10
116.475000
 20
24.625000
 10
117.725000
 20
24.625000
 10
118.600000
 20
29.350000
 10
118.600000
 20
29.450000
 10
118.175000
 20
30.100000
 10
118.250000
 20
32.375000
 10
118.500000
 20
32.725000
 10
119.875000
 20
32.900000
 10
120.200000
 20
34.125000
 10
119.975000
 20
34.225000
 10
119.325000
 20
34.775000
 10
118.850000
 20
36.075000
 10
119.200000
 20
36.750000
 10
119.700000
 20
37.275000
 10
120.175000
 20
37.275000
 10
119.700000
 20
37.275000
 10
119.200000
 20
38.675000
 10
119.750000
 20
38.750000
 10
120.175000
 20
39.725000
 10
120.475000
 20
39.725000
 10
120.375000
 20
41.775000
 10
120.800000
 20
42.600000
 10
120.700000
 20
47.350000
 10
121.050000
 20
47.775000
 10
121.050000
 20
49.525000
 10
120.575000
 20
49.875000
 10
120.750000
 20
50.750000
 10
120.800000
 20
52.225000
 10
120.625000
 20
54.275000
 10
121.050000
 20
55.725000
 10
121.125000
 20
59.550000
  0
LWPOLYLINE
  5
46e
100
AcDbEntity
  8
0
100
AcDbPolyline
 90
    31
 70
     0
 43
0.200000
 10
136.825000
 20
59.600000
 10
136.875000
 20
55.700000
 10
136.575000
 20
54.950000
 10
136.550000
 20
54.175000
 10
136.650000
 20
52.650000
 10
136.175000
 20
51.950000
 10
136.575000
 20
50.325000
 10
136.425000
 20
49.575000
 10
136.075000
 20
49.175000
 10
136.125000
 20
47.350000
 10
136.475000
 20
46.925000
 10
136.375000
 20
42.900000
 10
136.550000
 20
42.125000
 10
136.375000
 20
39.700000
 10
136.575000
 20
39.475000
 10
136.875000
 20
39.125000
 10
137.400000
 20
38.775000
 10
137.175000
 20
37.425000
 10
137.600000
 20
36.900000
 10
138.025000
 20
36.175000
 10
137.800000
 20
35.050000
 10
136.950000
 20
34.275000
 10
136.700000
 20
34.050000
 10
136.950000
 20
33.200000
 10
137.075000
 20
32.650000
 10
137.550000
 20
32.500000
 10
137.650000
 20
30.000000
 10
136.650000
 20
29.425000
 10
136.725000
 20
28.375000
 10
141.575000
 20
28.375000
 10
141.575000
 20
22.225000
  0
LINE
  5
4af
100
AcDbEntity
  8
0
370
    20
100
AcDbLine
 10
121.050000
 20
55.725000
 11
136.875000
 21
55.650000
  0
LWPOLYLINE
  5
4b2
100
AcDbEntity
  8
0
100
AcDbPolyline
 90
     2
 70
     0
 43
0.200000
 10
120.700000
 20
47.350000
 10
136.150000
 20
47.275000
  0
LWPOLYLINE
  5
4b9
100
AcDbEntity
  8
0
100
AcDbPolyline
 90
     2
 70
     0
 43
0.200000
 10
120.350000
 20
41.650000
 10
136.525000
 20
41.700000
  0
LWPOLYLINE
  5
4c0
100
AcDbEntity
  8
0
100
AcDbPolyline
 90
     2
 70
     0
 43
0.200000
 10
120.175000
 20
39.650000
 10
136.525000
 20
39.650000
  0
LWPOLYLINE
  5
4c7
100
AcDbEntity
  8
0
100
AcDbPolyline
 90
     2
 70
     0
 43
0.200000
 10
119.750000
 20
38.700000
 10
137.175000
 20
38.700000
  0
LWPOLYLINE
  5
4ce
100
AcDbEntity
  8
0
100
AcDbPolyline
 90
     3
 70
     0
 43
0.200000
 10
120.175000
 20
37.275000
 10
137.150000
 20
37.225000
 10
137.150000
 20
37.225000
  0
LWPOLYLINE
  5
4d7
100
AcDbEntity
  8
0
100
AcDbPolyline
 90
     3
 70
     0
 43
0.200000
 10
136.850000
 20
59.550000
 10
136.500000
 20
59.900000
 10
136.850000
 20
59.550000
  0
LWPOLYLINE
  5
4e0
100
AcDbEntity
  8
0
100
AcDbPolyline
 90
     2
 70
     0
 43
0.200000
 10
120.200000
 20
34.125000
 10
136.600000
 20
34.075000
  0
LWPOLYLINE
  5
4e7
100
AcDbEntity
  8
0
100
AcDbPolyline
 90
     2
 70
     0
 43
0.200000
 10
118.500000
 20
32.725000
 10
137.075000
 20
32.650000
  0
LINE
  5
4ee
100
AcDbEntity
  8
0
370
    20
100
AcDbLine
 10
118.800000
 20
29.375000
 11
136.675000
 21
29.375000
  0
LWPOLYLINE
  5
4f1
100
AcDbEntity
  8
0
100
AcDbPolyline
 90
     3
 70
     0
 43
0.200000
 10
116.475000
 20
24.625000
 10
141.600000
 20
24.625000
 10
141.600000
 20
24.575000
  0
LWPOLYLINE
  5
4fa
100
AcDbEntity
  8
0
100
AcDbPolyline
 90
     2
 70
     0
 43
0.200000
 10
136.700000
 20
28.675000
 10
137.375000
 20
24.725000
  0
CIRCLE
  5
501
100
AcDbEntity
  8
0
370
    20
100
AcDbCircle
 10
131.550000
 20
131.575000
 40
0.800000
  0
LWPOLYLINE
  5
504
100
AcDbEntity
  8
0
  6
DOT
 62
     7
100
AcDbPolyline
 90
   165
 70
     0
 43
0.200000
 10
22.600000
 20
109.350000
 10
23.450000
 20
110.925000
 10
25.025000
 20
113.075000
 10
27.375000
 20
115.625000
 10
29.775000
 20
117.800000
 10
31.900000
 20
118.900000
 10
34.525000
 20
119.825000
 10
37.200000
 20
119.900000
 10
39.700000
 20
119.500000
 10
43.200000
 20
118.225000
 10
47.225000
 20
116.525000
 10
51.575000
 20
115.025000
 10
56.425000
 20
116.025000
 10
56.550000
 20
115.650000
 10
56.275000
 20
114.500000
 10
56.175000
 20
114.275000
 10
62.525000
 20
114.400000
 10
69.375000
 20
115.300000
 10
74.650000
 20
116.400000
 10
78.475000
 20
117.600000
 10
79.225000
 20
117.675000
 10
84.125000
 20
119.675000
 10
95.075000
 20
124.950000
 10
100.150000
 20
127.350000
 10
103.950000
 20
129.275000
 10
107.225000
 20
130.475000
 10
110.600000
 20
131.375000
 10
113.125000
 20
131.575000
 10
114.900000
 20
131.475000
 10
119.275000
 20
130.700000
 10
123.250000
 20
129.350000
 10
125.750000
 20
127.400000
 10
127.800000
 20
124.775000
 10
129.500000
 20
121.525000
 10
130.675000
 20
115.550000
 10
130.725000
 20
111.850000
 10
130.625000
 20
110.825000
 10
130.450000
 20
108.975000
 10
129.675000
 20
108.200000
 10
128.700000
 20
108.050000
 10
127.800000
 20
108.200000
 10
126.800000
 20
108.525000
 10
126.475000
 20
109.675000
 10
126.250000
 20
110.700000
 10
126.525000
 20
113.425000
 10
126.975000
 20
115.425000
 10
127.200000
 20
116.925000
 10
126.800000
 20
119.275000
 10
125.900000
 20
121.375000
 10
123.250000
 20
124.800000
 10
120.975000
 20
126.000000
 10
118.325000
 20
127.025000
 10
115.875000
 20
127.250000
 10
115.175000
 20
127.025000
 10
114.575000
 20
126.400000
 10
114.000000
 20
124.250000
 10
114.450000
 20
123.475000
 10
114.100000
 20
122.225000
 10
113.700000
 20
121.475000
 10
110.775000
 20
121.250000
 10
109.375000
 20
122.075000
 10
108.975000
 20
122.875000
 10
107.575000
 20
124.550000
 10
106.350000
 20
125.275000
 10
105.325000
 20
124.950000
 10
101.425000
 20
123.050000
 10
96.125000
 20
120.300000
 10
93.225000
 20
118.900000
 10
88.200000
 20
116.750000
 10
84.475000
 20
115.200000
 10
78.400000
 20
113.225000
 10
74.375000
 20
112.000000
 10
71.400000
 20
111.300000
 10
69.300000
 20
110.900000
 10
66.250000
 20
110.400000
 10
62.200000
 20
109.775000
 10
58.900000
 20
109.300000
 10
58.825000
 20
109.100000
 10
59.000000
 20
108.300000
 10
58.825000
 20
107.625000
 10
58.500000
 20
106.925000
 10
57.875000
 20
107.150000
 10
57.225000
 20
105.700000
 10
56.775000
 20
105.275000
 10
56.100000
 20
106.000000
 10
55.450000
 20
105.400000
 10
54.750000
 20
104.900000
 10
54.475000
 20
104.800000
 10
54.175000
 20
104.875000
 10
53.975000
 20
105.550000
 10
53.725000
 20
106.325000
 10
53.525000
 20
106.825000
 10
52.925000
 20
107.600000
 10
52.425000
 20
107.600000
 10
51.375000
 20
107.025000
 10
50.975000
 20
107.075000
 10
50.700000
 20
106.400000
 10
50.300000
 20
105.975000
 10
49.800000
 20
106.125000
 10
49.650000
 20
105.975000
 10
49.425000
 20
105.600000
 10
49.050000
 20
105.125000
 10
48.325000
 20
105.200000
 10
48.025000
 20
104.450000
 10
47.100000
 20
104.325000
 10
46.875000
 20
103.675000
 10
46.125000
 20
103.425000
 10
45.950000
 20
103.475000
 10
45.650000
 20
103.075000
 10
45.300000
 20
102.750000
 10
44.625000
 20
102.475000
 10
44.475000
 20
102.775000
 10
43.875000
 20
102.225000
 10
43.375000
 20
101.850000
 10
42.900000
 20
102.050000
 10
42.675000
 20
102.075000
 10
42.350000
 20
101.800000
 10
41.900000
 20
101.450000
 10
41.475000
 20
101.650000
 10
41.175000
 20
101.600000
 10
40.625000
 20
101.525000
 10
40.225000
 20
101.400000
 10
39.650000
 20
101.550000
 10
39.250000
 20
101.475000
 10
38.450000
 20
101.250000
 10
37.900000
 20
101.325000
 10
37.475000
 20
101.425000
 10
37.025000
 20
101.525000
 10
36.775000
 20
101.475000
 10
36.525000
 20
101.450000
 10
36.450000
 20
101.525000
 10
36.200000
 20
101.750000
 10
35.850000
 20
101.800000
 10
35.425000
 20
101.825000
 10
35.075000
 20
101.800000
 10
34.725000
 20
101.975000
 10
34.175000
 20
102.150000
 10
33.650000
 20
102.300000
 10
33.050000
 20
102.575000
 10
32.325000
 20
103.000000
 10
32.025000
 20
103.025000
 10
31.825000
 20
102.975000
 10
31.500000
 20
103.225000
 10
31.225000
 20
103.425000
 10
30.900000
 20
103.650000
 10
30.375000
 20
103.850000
 10
30.200000
 20
104.025000
 10
29.750000
 20
104.350000
 10
29.575000
 20
104.500000
 10
29.175000
 20
104.550000
 10
29.050000
 20
104.700000
 10
28.925000
 20
105.075000
 10
28.725000
 20
105.375000
 10
28.500000
 20
105.400000
 10
28.125000
 20
105.300000
 10
27.825000
 20
105.500000
 10
27.500000
 20
105.850000
 10
27.600000
 20
106.075000
 10
27.200000
 20
106.300000
 10
26.800000
 20
106.550000
 10
26.325000
 20
106.900000
 10
25.700000
 20
107.300000
 10
24.675000
 20
108.100000
 10
23.350000
 20
108.900000
 10
22.700000
 20
109.400000
  0
LWPOLYLINE
  5
651
100
AcDbEntity
  8
0
  6
DOT
 62
     7
100
AcDbPolyline
 90
    83
 70
     0
 43
0.200000
 10
28.050000
 20
109.525000
 10
28.500000
 20
109.925000
 10
29.525000
 20
111.450000
 10
30.475000
 20
112.575000
 10
32.450000
 20
114.325000
 10
34.550000
 20
115.150000
 10
35.775000
 20
115.300000
 10
37.450000
 20
115.450000
 10
38.325000
 20
115.400000
 10
41.375000
 20
114.425000
 10
44.850000
 20
113.025000
 10
47.000000
 20
112.075000
 10
50.175000
 20
111.000000
 10
49.500000
 20
109.700000
 10
49.175000
 20
109.325000
 10
48.875000
 20
108.650000
 10
48.475000
 20
108.275000
 10
47.900000
 20
107.950000
 10
47.525000
 20
107.375000
 10
47.050000
 20
107.125000
 10
46.575000
 20
106.850000
 10
46.325000
 20
106.350000
 10
46.025000
 20
106.275000
 10
45.550000
 20
105.925000
 10
44.975000
 20
105.725000
 10
44.675000
 20
105.750000
 10
44.225000
 20
105.375000
 10
43.525000
 20
105.300000
 10
42.850000
 20
104.950000
 10
42.500000
 20
104.800000
 10
41.900000
 20
105.100000
 10
41.525000
 20
104.800000
 10
41.200000
 20
104.375000
 10
40.825000
 20
104.200000
 10
40.650000
 20
104.525000
 10
40.300000
 20
104.675000
 10
40.025000
 20
104.200000
 10
39.675000
 20
104.100000
 10
39.300000
 20
104.150000
 10
39.450000
 20
104.575000
 10
39.125000
 20
104.625000
 10
38.750000
 20
104.200000
 10
37.975000
 20
104.150000
 10
38.000000
 20
104.700000
 10
37.675000
 20
104.650000
 10
37.550000
 20
104.375000
 10
37.100000
 20
104.200000
 10
36.725000
 20
104.400000
 10
36.875000
 20
104.775000
 10
36.600000
 20
104.975000
 10
36.100000
 20
104.725000
 10
35.575000
 20
104.700000
 10
35.550000
 20
105.175000
 10
35.225000
 20
105.400000
 10
34.850000
 20
105.050000
 10
34.200000
 20
105.425000
 10
34.325000
 20
105.825000
 10
33.800000
 20
105.775000
 10
33.450000
 20
105.675000
 10
33.125000
 20
105.825000
 10
33.025000
 20
106.000000
 10
33.100000
 20
106.250000
 10
32.725000
 20
106.525000
 10
32.325000
 20
106.425000
 10
32.175000
 20
106.450000
 10
32.075000
 20
106.725000
 10
32.000000
 20
107.025000
 10
31.825000
 20
107.000000
 10
31.575000
 20
106.925000
 10
31.000000
 20
106.875000
 10
31.150000
 20
107.150000
 10
30.800000
 20
107.675000
 10
30.200000
 20
107.750000
 10
29.825000
 20
107.625000
 10
29.650000
 20
107.775000
 10
29.750000
 20
108.000000
 10
29.350000
 20
108.350000
 10
29.000000
 20
108.300000
 10
28.775000
 20
108.400000
 10
28.750000
 20
108.900000
 10
28.500000
 20
109.075000
 10
28.050000
 20
109.500000
 10
22.550000
 20
109.325000
  0
LWPOLYLINE
  5
6fa
100
AcDbEntity
  8
0
  6
DOT
 62
     7
100
AcDbPolyline
 90
   165
 70
     0
 43
0.200000
 10
98.825000
 20
33.725000
 10
97.575000
 20
34.975000
 10
96.000000
 20
37.175000
 10
94.300000
 20
40.175000
 10
92.950000
 20
43.125000
 10
92.575000
 20
45.475000
 10
92.500000
 20
48.250000
 10
93.200000
 20
50.825000
 10
94.400000
 20
53.075000
 10
96.625000
 20
56.050000
 10
99.475000
 20
59.350000
 10
102.250000
 20
63.025000
 10
102.750000
 20
67.950000
 10
103.150000
 20
67.950000
 10
104.175000
 20
67.325000
 10
104.375000
 20
67.175000
 10
106.200000
 20
73.275000
 10
107.400000
 20
80.075000
 10
107.975000
 20
85.425000
 10
107.975000
 20
89.425000
 10
108.150000
 20
90.175000
 10
107.725000
 20
95.475000
 10
106.050000
 20
107.500000
 10
105.300000
 20
113.075000
 10
104.625000
 20
117.275000
 10
104.475000
 20
120.750000
 10
104.650000
 20
124.225000
 10
105.200000
 20
126.675000
 10
105.850000
 20
128.350000
 10
107.950000
 20
132.275000
 10
110.425000
 20
135.675000
 10
113.050000
 20
137.450000
 10
116.175000
 20
138.600000
 10
119.775000
 20
139.250000
 10
125.850000
 20
138.550000
 10
129.350000
 20
137.450000
 10
130.325000
 20
137.075000
 10
132.050000
 20
136.300000
 10
132.525000
 20
135.325000
 10
132.350000
 20
134.375000
 10
131.950000
 20
133.550000
 10
131.325000
 20
132.700000
 10
130.150000
 20
132.750000
 10
129.100000
 20
132.825000
 10
126.600000
 20
133.950000
 10
124.825000
 20
134.975000
 10
123.475000
 20
135.625000
 10
121.100000
 20
135.975000
 10
118.825000
 20
135.750000
 10
114.750000
 20
134.275000
 10
112.950000
 20
132.475000
 10
111.150000
 20
130.275000
 10
110.200000
 20
128.000000
 10
110.175000
 20
127.275000
 10
110.600000
 20
126.500000
 10
112.450000
 20
125.300000
 10
113.325000
 20
125.475000
 10
114.400000
 20
124.775000
 10
115.000000
 20
124.150000
 10
114.350000
 20
121.300000
 10
113.125000
 20
120.250000
 10
112.250000
 20
120.100000
 10
110.200000
 20
119.300000
 10
109.175000
 20
118.325000
 10
109.175000
 20
117.275000
 10
109.775000
 20
112.950000
 10
110.800000
 20
107.100000
 10
111.225000
 20
103.875000
 10
111.750000
 20
98.450000
 10
112.100000
 20
94.400000
 10
112.125000
 20
88.050000
 10
112.050000
 20
83.825000
 10
111.825000
 20
80.775000
 10
111.575000
 20
78.675000
 10
111.125000
 20
75.600000
 10
110.475000
 20
71.550000
 10
109.925000
 20
68.250000
 10
110.100000
 20
68.125000
 10
110.900000
 20
68.075000
 10
111.500000
 20
67.700000
 10
112.050000
 20
67.175000
 10
111.650000
 20
66.625000
 10
112.850000
 20
65.575000
 10
113.100000
 20
65.000000
 10
112.200000
 20
64.575000
 10
112.600000
 20
63.800000
 10
112.850000
 20
62.975000
 10
112.875000
 20
62.675000
 10
112.700000
 20
62.400000
 10
111.975000
 20
62.425000
 10
111.175000
 20
62.425000
 10
110.625000
 20
62.400000
 10
109.725000
 20
62.050000
 10
109.575000
 20
61.550000
 10
109.775000
 20
60.400000
 10
109.625000
 20
60.050000
 10
110.175000
 20
59.575000
 10
110.475000
 20
59.050000
 10
110.175000
 20
58.625000
 10
110.300000
 20
58.425000
 10
110.550000
 20
58.125000
 10
110.900000
 20
57.600000
 10
110.625000
 20
56.950000
 10
111.250000
 20
56.425000
 10
111.050000
 20
55.500000
 10
111.600000
 20
55.100000
 10
111.650000
 20
54.300000
 10
111.525000
 20
54.150000
 10
111.825000
 20
53.750000
 10
112.025000
 20
53.325000
 10
112.075000
 20
52.575000
 10
111.750000
 20
52.550000
 10
112.075000
 20
51.800000
 10
112.300000
 20
51.200000
 10
111.975000
 20
50.800000
 10
111.850000
 20
50.625000
 10
112.025000
 20
50.225000
 10
112.225000
 20
49.700000
 10
111.900000
 20
49.325000
 10
111.850000
 20
49.050000
 10
111.775000
 20
48.500000
 10
111.750000
 20
48.075000
 10
111.425000
 20
47.575000
 10
111.375000
 20
47.175000
 10
111.350000
 20
46.325000
 10
111.125000
 20
45.825000
 10
110.900000
 20
45.475000
 10
110.675000
 20
45.050000
 10
110.625000
 20
44.825000
 10
110.600000
 20
44.575000
 10
110.475000
 20
44.525000
 10
110.200000
 20
44.350000
 10
110.025000
 20
44.025000
 10
109.875000
 20
43.625000
 10
109.825000
 20
43.300000
 10
109.550000
 20
43.000000
 10
109.200000
 20
42.550000
 10
108.900000
 20
42.075000
 10
108.475000
 20
41.600000
 10
107.825000
 20
41.025000
 10
107.700000
 20
40.775000
 10
107.700000
 20
40.525000
 10
107.375000
 20
40.325000
 10
107.075000
 20
40.100000
 10
106.800000
 20
39.875000
 10
106.400000
 20
39.425000
 10
106.200000
 20
39.325000
 10
105.750000
 20
38.975000
 10
105.550000
 20
38.875000
 10
105.375000
 20
38.525000
 10
105.200000
 20
38.450000
 10
104.825000
 20
38.400000
 10
104.475000
 20
38.325000
 10
104.375000
 20
38.125000
 10
104.350000
 20
37.725000
 10
104.075000
 20
37.525000
 10
103.625000
 20
37.300000
 10
103.450000
 20
37.475000
 10
103.100000
 20
37.175000
 10
102.775000
 20
36.850000
 10
102.275000
 20
36.500000
 10
101.725000
 20
36.025000
 10
100.625000
 20
35.300000
 10
99.450000
 20
34.275000
 10
98.775000
 20
33.850000
  0
LWPOLYLINE
  5
847
100
AcDbEntity
  8
0
  6
DOT
 62
     7
100
AcDbPolyline
 90
    83
 70
     0
 43
0.200000
 10
100.300000
 20
38.950000
 10
100.050000
 20
39.500000
 10
98.925000
 20
40.950000
 10
98.150000
 20
42.200000
 10
97.075000
 20
44.600000
 10
96.925000
 20
46.850000
 10
97.150000
 20
48.075000
 10
97.550000
 20
49.700000
 10
97.825000
 20
50.525000
 10
99.700000
 20
53.125000
 10
102.075000
 20
56.000000
 10
103.625000
 20
57.775000
 10
105.650000
 20
60.475000
 10
106.700000
 20
59.425000
 10
106.950000
 20
59.000000
 10
107.475000
 20
58.525000
 10
107.725000
 20
58.025000
 10
107.825000
 20
57.375000
 10
108.275000
 20
56.850000
 10
108.375000
 20
56.325000
 10
108.500000
 20
55.800000
 10
108.900000
 20
55.400000
 10
108.875000
 20
55.075000
 10
109.050000
 20
54.525000
 10
109.075000
 20
53.900000
 10
108.950000
 20
53.650000
 10
109.175000
 20
53.075000
 10
109.050000
 20
52.400000
 10
109.175000
 20
51.650000
 10
109.200000
 20
51.275000
 10
108.750000
 20
50.800000
 10
108.900000
 20
50.350000
 10
109.225000
 20
49.900000
 10
109.275000
 20
49.500000
 10
108.900000
 20
49.425000
 10
108.675000
 20
49.150000
 10
109.000000
 20
48.750000
 10
109.025000
 20
48.350000
 10
108.850000
 20
48.025000
 10
108.500000
 20
48.300000
 10
108.325000
 20
48.025000
 10
108.650000
 20
47.525000
 10
108.450000
 20
46.775000
 10
107.925000
 20
46.975000
 10
107.900000
 20
46.650000
 10
108.125000
 20
46.425000
 10
108.150000
 20
45.950000
 10
107.825000
 20
45.650000
 10
107.550000
 20
45.900000
 10
107.275000
 20
45.725000
 10
107.325000
 20
45.125000
 10
107.175000
 20
44.650000
 10
106.725000
 20
44.775000
 10
106.425000
 20
44.525000
 10
106.650000
 20
44.075000
 10
106.100000
 20
43.550000
 10
105.750000
 20
43.800000
 10
105.650000
 20
43.300000
 10
105.625000
 20
42.900000
 10
105.400000
 20
42.650000
 10
105.200000
 20
42.625000
 10
104.950000
 20
42.775000
 10
104.575000
 20
42.475000
 10
104.575000
 20
42.075000
 10
104.475000
 20
41.950000
 10
104.225000
 20
41.925000
 10
103.875000
 20
41.975000
 10
103.875000
 20
41.800000
 10
103.875000
 20
41.525000
 10
103.725000
 20
40.950000
 10
103.525000
 20
41.200000
 10
102.900000
 20
41.000000
 10
102.675000
 20
40.475000
 10
102.675000
 20
40.075000
 10
102.450000
 20
39.925000
 10
102.275000
 20
40.100000
 10
101.825000
 20
39.825000
 10
101.775000
 20
39.500000
 10
101.575000
 20
39.325000
 10
101.100000
 20
39.400000
 10
100.875000
 20
39.225000
 10
100.350000
 20
38.950000
 10
98.825000
 20
33.675000
  0
LINE
  5
8f0
100
AcDbEntity
  8
0
370
    20
100
AcDbLine
 10
119.200000
 20
91.050000
 11
139.775000
 21
91.050000
  0
LWPOLYLINE
  5
8f3
100
AcDbEntity
  8
0
100
AcDbPolyline
 90
    11
 70
     0
 43
0.200000
 10
134.800000
 20
101.875000
 10
140.275000
 20
100.600000
 10
140.225000
 20
97.600000
 10
140.275000
 20
97.800000
 10
140.525000
 20
95.600000
 10
138.050000
 20
95.150000
 10
137.925000
 20
94.700000
 10
138.075000
 20
93.650000
 10
139.575000
 20
93.075000
 10
139.900000
 20
92.200000
 10
139.750000
 20
91.200000
  0
LINE
  5
90c
100
AcDbEntity
  8
0
370
    20
100
AcDbLine
 10
134.800000
 20
97.800000
 11
140.275000
 21
97.800000
  0
LINE
  5
90f
100
AcDbEntity
  8
0
370
    20
100
AcDbLine
 10
120.350000
 20
95.400000
 11
130.075000
 21
95.400000
  0
LINE
  5
912
100
AcDbEntity
  8
0
370
    20
100
AcDbLine
 10
132.300000
 20
95.400000
 11
138.050000
 21
95.400000
  0
LINE
  5
915
100
AcDbEntity
  8
0
370
    20
100
AcDbLine
 10
119.550000
 20
93.650000
 11
130.075000
 21
93.650000
  0
LINE
  5
918
100
AcDbEntity
  8
0
370
    20
100
AcDbLine
 10
132.300000
 20
93.650000
 11
138.075000
 21
93.650000
  0
LWPOLYLINE
  5
91b
100
AcDbEntity
  8
0
100
AcDbPolyline
 90
     2
 70
     0
 43
0.200000
 10
113.350000
 20
22.150000
 10
141.600000
 20
22.150000
  0
LWPOLYLINE
  5
922
100
AcDbEntity
  8
0
100
AcDbPolyline
 90
     4
 70
     0
 43
0.200000
 10
124.400000
 20
24.625000
 10
124.950000
 20
28.450000
 10
130.025000
 20
28.450000
 10
130.575000
 20
24.625000
  0
LWPOLYLINE
  5
92d
100
AcDbEntity
  8
0
100
AcDbPolyline
 90
     4
 70
     1
 43
0.200000
 10
126.525000
 20
29.375000
 10
128.900000
 20
29.375000
 10
128.900000
 20
28.450000
 10
126.525000
 20
28.450000
  0
LWPOLYLINE
  5
938
100
AcDbEntity
  8
0
100
AcDbPolyline
 90
     4
 70
     1
 43
0.200000
 10
125.000000
 20
32.650000
 10
130.250000
 20
32.650000
 10
130.250000
 20
29.475000
 10
125.000000
 20
29.475000
  0
LWPOLYLINE
  5
943
100
AcDbEntity
  8
0
100
AcDbPolyline
 90
     4
 70
     1
 43
0.200000
 10
126.100000
 20
33.950000
 10
129.200000
 20
33.950000
 10
129.200000
 20
32.525000
 10
126.100000
 20
32.525000
  0
LWPOLYLINE
  5
94e
100
AcDbEntity
  8
0
100
AcDbPolyline
 90
     3
 70
     0
 43
0.200000
 10
141.800000
 20
84.800000
 10
143.550000
 20
84.800000
 10
143.625000
 20
84.875000
  0
LINE
  5
957
100
AcDbEntity
  8
0
370
    20
100
AcDbLine
 10
138.050000
 20
95.400000
 11
139.600000
 21
95.375000
  0
LWPOLYLINE
  5
95a
100
AcDbEntity
  8
0
100
AcDbPolyline
 90
     2
 70
     0
 43
0.200000
 10
168.150000
 20
74.925000
 10
171.400000
 20
72.700000
  0
LWPOLYLINE
  5
961
100
AcDbEntity
  8
0
100
AcDbPolyline
 90
     2
 70
     0
 43
0.200000
 10
134.800000
 20
101.875000
 10
133.425000
 20
102.600000
  0
LWPOLYLINE
  5
968
100
AcDbEntity
  8
0
100
AcDbPolyline
 90
     4
 70
     1
 43
0.200000
 10
181.925000
 20
51.025000
 10
194.325000
 20
51.025000
 10
194.050000
 20
47.875000
 10
182.125000
 20
47.925000
  0
LWPOLYLINE
  5
973
100
AcDbEntity
  8
0
100
AcDbPolyline
 90
     4
 70
     1
 43
0.200000
 10
182.575000
 20
47.800000
 10
193.675000
 20
47.800000
 10
193.675000
 20
47.425000
 10
182.575000
 20
47.425000
  0
LWPOLYLINE
  5
97e
100
AcDbEntity
  8
0
100
AcDbPolyline
 90
     4
 70
     1
 43
0.200000
 10
187.725000
 20
128.400000
 10
188.500000
 20
128.400000
 10
188.500000
 20
51.025000
 10
187.725000
 20
51.025000
  0
CIRCLE
  5
989
100
AcDbEntity
  8
0
370
    20
100
AcDbCircle
 10
188.125000
 20
129.950000
 40
1.550000
  0
CIRCLE
  5
98c
100
AcDbEntity
  8
0
370
    20
100
AcDbCircle
 10
188.150000
 20
130.000000
 40
0.725000
  0
LWPOLYLINE
  5
98f
100
AcDbEntity
  8
0
100
AcDbPolyline
 90
     4
 70
     1
 43
0.200000
 10
181.925000
 20
39.450000
 10
195.850000
 20
39.450000
 10
195.850000
 20
38.500000
 10
181.925000
 20
38.500000
  0
SPLINE
  5
99a
100
AcDbEntity
  8
0
370
    20
100
AcDbSpline
210
0.000000
220
0.000000
230
1.000000
 70
     8
 71
     3
 72
    20
 73
    16
 74
     0
 42
0.0000001
 43
0.0000001
 44
0.0000000001
 40
0.000000
 40
0.000000
 40
0.000000
 40
0.000000
 40
0.175000
 40
0.175000
 40
0.175000
 40
0.575000
 40
0.575000
 40
0.575000
 40
2.501947
 40
2.501947
 40
2.501947
 40
4.951947
 40
4.951947
 40
4.951947
 40
7.026345
 40
7.026345
 40
7.026345
 40
7.026345
 10
186.275000
 20
40.175000
 30
0.000000
 10
186.275000
 20
40.150000
 30
0.000000
 10
186.275000
 20
40.050000
 30
0.000000
 10
186.275000
 20
40.000000
 30
0.000000
 10
186.275000
 20
40.000000
 30
0.000000
 10
186.275000
 20
40.400000
 30
0.000000
 10
186.275000
 20
40.400000
 30
0.000000
 10
186.275000
 20
41.125000
 30
0.000000
 10
186.900000
 20
41.750000
 30
0.000000
 10
187.650000
 20
41.750000
 30
0.000000
 10
187.650000
 20
41.750000
 30
0.000000
 10
190.100000
 20
41.750000
 30
0.000000
 10
190.100000
 20
41.750000
 30
0.000000
 10
190.875000
 20
41.750000
 30
0.000000
 10
191.525000
 20
40.950000
 30
0.000000
 10
191.450000
 20
40.175000
 30
0.000000
  0
LINE
  5
99d
100
AcDbEntity
  8
0
370
    20
100
AcDbLine
 10
191.500000
 20
40.175000
 11
191.500000
 21
39.450000
  0
LINE
  5
9a0
100
AcDbEntity
  8
0
370
    20
100
AcDbLine
 10
186.225000
 20
39.450000
 11
186.225000
 21
40.175000
  0
LWPOLYLINE
  5
9a3
100
AcDbEntity
  8
0
100
AcDbPolyline
 90
     4
 70
     1
 43
0.200000
 10
130.050000
 20
104.600000
 10
132.425000
 20
104.600000
 10
132.425000
 20
103.650000
 10
130.050000
 20
103.650000
  0
LWPOLYLINE
  5
9ae
100
AcDbEntity
  8
0
100
AcDbPolyline
 90
     4
 70
     1
 43
0.200000
 10
130.700000
 20
104.525000
 10
131.750000
 20
104.525000
 10
131.750000
 20
103.675000
 10
130.700000
 20
103.675000
  0
LWPOLYLINE
  5
9b9
100
AcDbEntity
  8
0
100
AcDbPolyline
 90
     4
 70
     1
 43
0.200000
 10
126.900000
 20
33.925000
 10
128.350000
 20
33.925000
 10
128.350000
 20
32.675000
 10
126.900000
 20
32.675000
  0
LWPOLYLINE
  5
9c4
100
AcDbEntity
  8
0
100
AcDbPolyline
 90
     4
 70
     1
 43
0.200000
 10
141.575000
 20
27.300000
 10
142.225000
 20
27.300000
 10
142.225000
 20
25.675000
 10
141.575000
 20
25.675000
  0
LWPOLYLINE
  5
9cf
100
AcDbEntity
  8
0
100
AcDbPolyline
 90
     4
 70
     1
 43
0.200000
 10
141.575000
 20
26.975000
 10
142.125000
 20
26.975000
 10
142.125000
 20
26.075000
 10
141.575000
 20
26.075000
  0
MTEXT
  5
9da
100
AcDbEntity
  8
0
100
AcDbMText
 10
9.275000
 20
159.250000
 40
2.456250
 41
24.562500
 71
     1
 72
     5
  1
\fＭＳ 明朝|b0|i0|c128|p17;\T1.0200;ロータス号
 44
0.964233
 73
     1
  7
BIGFONT
  0
MTEXT
  5
9dd
100
AcDbEntity
  8
0
100
AcDbMText
 10
218.000000
 20
14.000000
 40
2.456250
 41
73.687500
 71
     1
 72
     5
  1
\fＭＳ 明朝|b0|i0|c128|p17;\T1.0200;シップスレインワールド株式会社
 44
0.964233
 73
     1
  7
BIGFONT
  0
SPLINE
  5
9e0
100
AcDbEntity
  8
0
370
    20
100
AcDbSpline
210
0.000000
220
0.000000
230
1.000000
 70
     8
 71
     3
 72
    41
 73
    37
 74
     0
 42
0.0000001
 43
0.0000001
 44
0.0000000001
 40
0.000000
 40
0.000000
 40
0.000000
 40
0.000000
 40
0.309233
 40
0.309233
 40
0.309233
 40
0.892864
 40
0.892864
 40
0.892864
 40
1.494944
 40
1.494944
 40
1.494944
 40
2.892486
 40
2.892486
 40
2.892486
 40
3.587108
 40
3.587108
 40
3.587108
 40
4.616975
 40
4.616975
 40
4.616975
 40
5.727155
 40
5.727155
 40
5.727155
 40
8.664096
 40
8.664096
 40
8.664096
 40
10.625282
 40
10.625282
 40
10.625282
 40
12.098798
 40
12.098798
 40
12.098798
 40
14.063009
 40
14.063009
 40
14.063009
 40
17.127728
 40
17.127728
 40
17.127728
 40
17.127728
 10
124.150000
 20
81.300000
 30
0.000000
 10
124.150000
 20
81.400000
 30
0.000000
 10
124.175000
 20
81.525000
 30
0.000000
 10
124.225000
 20
81.600000
 30
0.000000
 10
124.350000
 20
81.750000
 30
0.000000
 10
124.475000
 20
81.950000
 30
0.000000
 10
124.650000
 20
82.000000
 30
0.000000
 10
124.825000
 20
82.050000
 30
0.000000
 10
125.075000
 20
82.050000
 30
0.000000
 10
125.250000
 20
81.950000
 30
0.000000
 10
125.625000
 20
81.700000
 30
0.000000
 10
125.825000
 20
81.150000
 30
0.000000
 10
126.275000
 20
81.000000
 30
0.000000
 10
126.475000
 20
80.925000
 30
0.000000
 10
126.750000
 20
81.125000
 30
0.000000
 10
126.875000
 20
81.350000
 30
0.000000
 10
127.025000
 20
81.650000
 30
0.000000
 10
127.075000
 20
82.050000
 30
0.000000
 10
126.975000
 20
82.375000
 30
0.000000
 10
126.875000
 20
82.750000
 30
0.000000
 10
126.525000
 20
82.975000
 30
0.000000
 10
126.325000
 20
83.275000
 30
0.000000
 10
125.800000
 20
84.100000
 30
0.000000
 10
125.175000
 20
84.875000
 30
0.000000
 10
124.825000
 20
85.800000
 30
0.000000
 10
124.600000
 20
86.425000
 30
0.000000
 10
124.450000
 20
87.050000
 30
0.000000
 10
124.450000
 20
87.725000
 30
0.000000
 10
124.450000
 20
88.175000
 30
0.000000
 10
124.625000
 20
88.750000
 30
0.000000
 10
124.825000
 20
89.150000
 30
0.000000
 10
125.125000
 20
89.750000
 30
0.000000
 10
125.550000
 20
90.350000
 30
0.000000
 10
126.150000
 20
90.600000
 30
0.000000
 10
127.100000
 20
90.975000
 30
0.000000
 10
128.150000
 20
90.950000
 30
0.000000
 10
129.200000
 20
90.900000
 30
0.000000
  0
SPLINE
  5
9e3
100
AcDbEntity
  8
0
370
    20
100
AcDbSpline
210
0.000000
220
0.000000
230
1.000000
 70
     8
 71
     3
 72
    29
 73
    25
 74
     0
 42
0.0000001
 43
0.0000001
 44
0.0000000001
 40
0.000000
 40
0.000000
 40
0.000000
 40
0.000000
 40
1.130542
 40
1.130542
 40
1.130542
 40
2.808524
 40
2.808524
 40
2.808524
 40
4.243141
 40
4.243141
 40
4.243141
 40
5.682108
 40
5.682108
 40
5.682108
 40
7.261071
 40
7.261071
 40
7.261071
 40
9.745271
 40
9.745271
 40
9.745271
 40
12.375860
 40
12.375860
 40
12.375860
 40
13.721223
 40
13.721223
 40
13.721223
 40
13.721223
 10
124.200000
 20
81.275000
 30
0.000000
 10
124.475000
 20
81.025000
 30
0.000000
 10
124.750000
 20
80.750000
 30
0.000000
 10
125.125000
 20
80.625000
 30
0.000000
 10
125.675000
 20
80.475000
 30
0.000000
 10
126.275000
 20
80.350000
 30
0.000000
 10
126.800000
 20
80.525000
 30
0.000000
 10
127.250000
 20
80.650000
 30
0.000000
 10
127.650000
 20
81.050000
 30
0.000000
 10
127.875000
 20
81.475000
 30
0.000000
 10
128.100000
 20
81.900000
 30
0.000000
 10
128.075000
 20
82.425000
 30
0.000000
 10
128.075000
 20
82.900000
 30
0.000000
 10
128.075000
 20
83.500000
 30
0.000000
 10
127.650000
 20
83.775000
 30
0.000000
 10
127.450000
 20
84.350000
 30
0.000000
 10
127.175000
 20
85.125000
 30
0.000000
 10
126.725000
 20
85.850000
 30
0.000000
 10
126.575000
 20
86.675000
 30
0.000000
 10
126.425000
 20
87.450000
 30
0.000000
 10
126.650000
 20
88.550000
 30
0.000000
 10
126.975000
 20
89.275000
 30
0.000000
 10
127.150000
 20
89.675000
 30
0.000000
 10
127.575000
 20
89.925000
 30
0.000000
 10
127.975000
 20
90.175000
 30
0.000000
  0
SPLINE
  5
9e6
100
AcDbEntity
  8
0
370
    20
100
AcDbSpline
210
0.000000
220
0.000000
230
1.000000
 70
     8
 71
     3
 72
    38
 73
    34
 74
     0
 42
0.0000001
 43
0.0000001
 44
0.0000000001
 40
0.000000
 40
0.000000
 40
0.000000
 40
0.000000
 40
0.316228
 40
0.316228
 40
0.316228
 40
0.881913
 40
0.881913
 40
0.881913
 40
1.483993
 40
1.483993
 40
1.483993
 40
2.881535
 40
2.881535
 40
2.881535
 40
3.576158
 40
3.576158
 40
3.576158
 40
4.608751
 40
4.608751
 40
4.608751
 40
5.733751
 40
5.733751
 40
5.733751
 40
8.658003
 40
8.658003
 40
8.658003
 40
10.624123
 40
10.624123
 40
10.624123
 40
12.104199
 40
12.104199
 40
12.104199
 40
13.345418
 40
13.345418
 40
13.345418
 40
13.345418
 10
134.275000
 20
81.300000
 30
0.000000
 10
134.250000
 20
81.400000
 30
0.000000
 10
134.225000
 20
81.525000
 30
0.000000
 10
134.175000
 20
81.600000
 30
0.000000
 10
134.050000
 20
81.750000
 30
0.000000
 10
133.950000
 20
81.950000
 30
0.000000
 10
133.775000
 20
82.000000
 30
0.000000
 10
133.575000
 20
82.050000
 30
0.000000
 10
133.350000
 20
82.050000
 30
0.000000
 10
133.175000
 20
81.950000
 30
0.000000
 10
132.775000
 20
81.700000
 30
0.000000
 10
132.600000
 20
81.150000
 30
0.000000
 10
132.150000
 20
81.000000
 30
0.000000
 10
131.925000
 20
80.925000
 30
0.000000
 10
131.650000
 20
81.125000
 30
0.000000
 10
131.550000
 20
81.350000
 30
0.000000
 10
131.400000
 20
81.650000
 30
0.000000
 10
131.325000
 20
82.050000
 30
0.000000
 10
131.425000
 20
82.375000
 30
0.000000
 10
131.525000
 20
82.750000
 30
0.000000
 10
131.900000
 20
82.975000
 30
0.000000
 10
132.100000
 20
83.275000
 30
0.000000
 10
132.600000
 20
84.100000
 30
0.000000
 10
133.250000
 20
84.875000
 30
0.000000
 10
133.575000
 20
85.800000
 30
0.000000
 10
133.800000
 20
86.425000
 30
0.000000
 10
133.975000
 20
87.050000
 30
0.000000
 10
133.975000
 20
87.725000
 30
0.000000
 10
133.975000
 20
88.175000
 30
0.000000
 10
133.800000
 20
88.750000
 30
0.000000
 10
133.575000
 20
89.150000
 30
0.000000
 10
133.400000
 20
89.500000
 30
0.000000
 10
133.175000
 20
89.900000
 30
0.000000
 10
132.875000
 20
90.175000
 30
0.000000
  0
SPLINE
  5
9e9
100
AcDbEntity
  8
0
370
    20
100
AcDbSpline
210
0.000000
220
0.000000
230
1.000000
 70
     8
 71
     3
 72
     8
 73
     4
 74
     0
 42
0.0000001
 43
0.0000001
 44
0.0000000001
 40
0.000000
 40
0.000000
 40
0.000000
 40
0.000000
 40
1.750000
 40
1.750000
 40
1.750000
 40
1.750000
 10
130.950000
 20
90.900000
 30
0.000000
 10
130.375000
 20
90.975000
 30
0.000000
 10
129.775000
 20
90.950000
 30
0.000000
 10
129.200000
 20
90.900000
 30
0.000000
  0
SPLINE
  5
9ec
100
AcDbEntity
  8
0
370
    20
100
AcDbSpline
210
0.000000
220
0.000000
230
1.000000
 70
     8
 71
     3
 72
    29
 73
    25
 74
     0
 42
0.0000001
 43
0.0000001
 44
0.0000000001
 40
0.000000
 40
0.000000
 40
0.000000
 40
0.000000
 40
1.151086
 40
1.151086
 40
1.151086
 40
2.804114
 40
2.804114
 40
2.804114
 40
4.238731
 40
4.238731
 40
4.238731
 40
5.677697
 40
5.677697
 40
5.677697
 40
7.256661
 40
7.256661
 40
7.256661
 40
9.732166
 40
9.732166
 40
9.732166
 40
12.362755
 40
12.362755
 40
12.362755
 40
13.689640
 40
13.689640
 40
13.689640
 40
13.689640
 10
134.225000
 20
81.275000
 30
0.000000
 10
133.925000
 20
81.025000
 30
0.000000
 10
133.650000
 20
80.750000
 30
0.000000
 10
133.275000
 20
80.625000
 30
0.000000
 10
132.750000
 20
80.475000
 30
0.000000
 10
132.150000
 20
80.350000
 30
0.000000
 10
131.625000
 20
80.525000
 30
0.000000
 10
131.150000
 20
80.650000
 30
0.000000
 10
130.775000
 20
81.050000
 30
0.000000
 10
130.550000
 20
81.475000
 30
0.000000
 10
130.300000
 20
81.900000
 30
0.000000
 10
130.350000
 20
82.425000
 30
0.000000
 10
130.350000
 20
82.900000
 30
0.000000
 10
130.350000
 20
83.500000
 30
0.000000
 10
130.775000
 20
83.775000
 30
0.000000
 10
130.975000
 20
84.350000
 30
0.000000
 10
131.225000
 20
85.125000
 30
0.000000
 10
131.675000
 20
85.850000
 30
0.000000
 10
131.825000
 20
86.675000
 30
0.000000
 10
132.000000
 20
87.450000
 30
0.000000
 10
131.750000
 20
88.550000
 30
0.000000
 10
131.425000
 20
89.275000
 30
0.000000
 10
131.250000
 20
89.675000
 30
0.000000
 10
130.800000
 20
89.925000
 30
0.000000
 10
130.450000
 20
90.175000
 30
0.000000
  0
SPLINE
  5
9ef
100
AcDbEntity
  8
0
370
    20
100
AcDbSpline
210
0.000000
220
0.000000
230
1.000000
 70
     8
 71
     3
 72
    92
 73
    88
 74
     0
 42
0.0000001
 43
0.0000001
 44
0.0000000001
 40
0.000000
 40
0.000000
 40
0.000000
 40
0.000000
 40
0.412311
 40
0.412311
 40
0.412311
 40
0.982398
 40
0.982398
 40
0.982398
 40
2.133485
 40
2.133485
 40
2.133485
 40
5.360035
 40
5.360035
 40
5.360035
 40
6.070668
 40
6.070668
 40
6.070668
 40
7.134271
 40
7.134271
 40
7.134271
 40
8.787298
 40
8.787298
 40
8.787298
 40
9.381541
 40
9.381541
 40
9.381541
 40
9.795365
 40
9.795365
 40
9.795365
 40
10.627531
 40
10.627531
 40
10.627531
 40
12.422663
 40
12.422663
 40
12.422663
 40
14.302158
 40
14.302158
 40
14.302158
 40
14.947332
 40
14.947332
 40
14.947332
 40
16.043918
 40
16.043918
 40
16.043918
 40
16.805905
 40
16.805905
 40
16.805905
 40
18.241611
 40
18.241611
 40
18.241611
 40
19.413415
 40
19.413415
 40
19.413415
 40
20.038915
 40
20.038915
 40
20.038915
 40
21.245408
 40
21.245408
 40
21.245408
 40
23.315432
 40
23.315432
 40
23.315432
 40
24.411447
 40
24.411447
 40
24.411447
 40
24.561447
 40
24.561447
 40
24.561447
 40
26.039833
 40
26.039833
 40
26.039833
 40
27.478800
 40
27.478800
 40
27.478800
 40
29.441101
 40
29.441101
 40
29.441101
 40
30.302059
 40
30.302059
 40
30.302059
 40
31.725084
 40
31.725084
 40
31.725084
 40
36.275359
 40
36.275359
 40
36.275359
 40
36.828758
 40
36.828758
 40
36.828758
 40
36.828758
 10
128.950000
 20
75.400000
 30
0.000000
 10
128.975000
 20
75.575000
 30
0.000000
 10
128.975000
 20
75.750000
 30
0.000000
 10
128.850000
 20
75.800000
 30
0.000000
 10
128.675000
 20
75.850000
 30
0.000000
 10
128.375000
 20
75.825000
 30
0.000000
 10
128.300000
 20
75.650000
 30
0.000000
 10
128.150000
 20
75.300000
 30
0.000000
 10
128.250000
 20
74.875000
 30
0.000000
 10
128.250000
 20
74.500000
 30
0.000000
 10
128.200000
 20
73.425000
 30
0.000000
 10
128.375000
 20
72.325000
 30
0.000000
 10
128.150000
 20
71.275000
 30
0.000000
 10
128.075000
 20
71.050000
 30
0.000000
 10
127.725000
 20
71.550000
 30
0.000000
 10
127.600000
 20
71.725000
 30
0.000000
 10
127.400000
 20
72.000000
 30
0.000000
 10
127.125000
 20
72.300000
 30
0.000000
 10
127.075000
 20
72.650000
 30
0.000000
 10
126.975000
 20
73.175000
 30
0.000000
 10
127.125000
 20
73.750000
 30
0.000000
 10
127.175000
 20
74.300000
 30
0.000000
 10
127.200000
 20
74.500000
 30
0.000000
 10
127.400000
 20
74.675000
 30
0.000000
 10
127.325000
 20
74.875000
 30
0.000000
 10
127.300000
 20
75.000000
 30
0.000000
 10
127.050000
 20
75.125000
 30
0.000000
 10
126.950000
 20
75.050000
 30
0.000000
 10
126.700000
 20
74.875000
 30
0.000000
 10
126.600000
 20
74.600000
 30
0.000000
 10
126.500000
 20
74.350000
 30
0.000000
 10
126.300000
 20
73.775000
 30
0.000000
 10
126.000000
 20
73.175000
 30
0.000000
 10
126.100000
 20
72.600000
 30
0.000000
 10
126.200000
 20
71.975000
 30
0.000000
 10
126.700000
 20
71.500000
 30
0.000000
 10
127.000000
 20
70.950000
 30
0.000000
 10
127.125000
 20
70.775000
 30
0.000000
 10
127.575000
 20
70.450000
 30
0.000000
 10
127.375000
 20
70.425000
 30
0.000000
 10
127.000000
 20
70.400000
 30
0.000000
 10
126.700000
 20
70.675000
 30
0.000000
 10
126.375000
 20
70.875000
 30
0.000000
 10
126.175000
 20
71.025000
 30
0.000000
 10
125.950000
 20
71.175000
 30
0.000000
 10
125.800000
 20
71.375000
 30
0.000000
 10
125.500000
 20
71.725000
 30
0.000000
 10
125.175000
 20
72.100000
 30
0.000000
 10
124.975000
 20
72.550000
 30
0.000000
 10
124.825000
 20
72.900000
 30
0.000000
 10
124.975000
 20
73.400000
 30
0.000000
 10
124.750000
 20
73.700000
 30
0.000000
 10
124.625000
 20
73.875000
 30
0.000000
 10
124.225000
 20
73.850000
 30
0.000000
 10
124.125000
 20
73.675000
 30
0.000000
 10
123.900000
 20
73.325000
 30
0.000000
 10
123.850000
 20
72.850000
 30
0.000000
 10
124.000000
 20
72.475000
 30
0.000000
 10
124.250000
 20
71.850000
 30
0.000000
 10
124.825000
 20
71.375000
 30
0.000000
 10
125.250000
 20
70.825000
 30
0.000000
 10
125.500000
 20
70.550000
 30
0.000000
 10
125.800000
 20
70.350000
 30
0.000000
 10
126.025000
 20
70.050000
 30
0.000000
 10
126.075000
 20
70.000000
 30
0.000000
 10
126.075000
 20
69.875000
 30
0.000000
 10
126.025000
 20
69.900000
 30
0.000000
 10
125.525000
 20
70.000000
 30
0.000000
 10
125.100000
 20
70.325000
 30
0.000000
 10
124.625000
 20
70.375000
 30
0.000000
 10
124.150000
 20
70.425000
 30
0.000000
 10
123.625000
 20
70.375000
 30
0.000000
 10
123.200000
 20
70.175000
 30
0.000000
 10
122.600000
 20
69.925000
 30
0.000000
 10
121.925000
 20
69.625000
 30
0.000000
 10
121.575000
 20
69.075000
 30
0.000000
 10
121.450000
 20
68.800000
 30
0.000000
 10
122.075000
 20
68.675000
 30
0.000000
 10
122.350000
 20
68.700000
 30
0.000000
 10
122.825000
 20
68.725000
 30
0.000000
 10
123.200000
 20
69.200000
 30
0.000000
 10
123.700000
 20
69.150000
 30
0.000000
 10
125.200000
 20
69.025000
 30
0.000000
 10
126.675000
 20
68.550000
 30
0.000000
 10
128.150000
 20
68.200000
 30
0.000000
 10
128.325000
 20
68.150000
 30
0.000000
 10
128.500000
 20
68.075000
 30
0.000000
 10
128.675000
 20
68.025000
 30
0.000000
  0
SPLINE
  5
9f2
100
AcDbEntity
  8
0
370
    20
100
AcDbSpline
210
0.000000
220
0.000000
230
1.000000
 70
     8
 71
     3
 72
    92
 73
    88
 74
     0
 42
0.0000001
 43
0.0000001
 44
0.0000000001
 40
0.000000
 40
0.000000
 40
0.000000
 40
0.000000
 40
0.395285
 40
0.395285
 40
0.395285
 40
0.959310
 40
0.959310
 40
0.959310
 40
2.135374
 40
2.135374
 40
2.135374
 40
5.336936
 40
5.336936
 40
5.336936
 40
6.047569
 40
6.047569
 40
6.047569
 40
7.077132
 40
7.077132
 40
7.077132
 40
8.753811
 40
8.753811
 40
8.753811
 40
9.330981
 40
9.330981
 40
9.330981
 40
9.767587
 40
9.767587
 40
9.767587
 40
10.599753
 40
10.599753
 40
10.599753
 40
12.370522
 40
12.370522
 40
12.370522
 40
14.250017
 40
14.250017
 40
14.250017
 40
14.895191
 40
14.895191
 40
14.895191
 40
15.969028
 40
15.969028
 40
15.969028
 40
16.734289
 40
16.734289
 40
16.734289
 40
18.169995
 40
18.169995
 40
18.169995
 40
19.366343
 40
19.366343
 40
19.366343
 40
19.991843
 40
19.991843
 40
19.991843
 40
21.196002
 40
21.196002
 40
21.196002
 40
23.286008
 40
23.286008
 40
23.286008
 40
24.364491
 40
24.364491
 40
24.364491
 40
24.541268
 40
24.541268
 40
24.541268
 40
26.027875
 40
26.027875
 40
26.027875
 40
27.466841
 40
27.466841
 40
27.466841
 40
29.422762
 40
29.422762
 40
29.422762
 40
30.261287
 40
30.261287
 40
30.261287
 40
31.692415
 40
31.692415
 40
31.692415
 40
36.272398
 40
36.272398
 40
36.272398
 40
36.825797
 40
36.825797
 40
36.825797
 40
36.825797
 10
128.325000
 20
75.450000
 30
0.000000
 10
128.325000
 20
75.625000
 30
0.000000
 10
128.325000
 20
75.800000
 30
0.000000
 10
128.450000
 20
75.825000
 30
0.000000
 10
128.625000
 20
75.900000
 30
0.000000
 10
128.925000
 20
75.875000
 30
0.000000
 10
129.000000
 20
75.700000
 30
0.000000
 10
129.150000
 20
75.350000
 30
0.000000
 10
129.025000
 20
74.925000
 30
0.000000
 10
129.050000
 20
74.525000
 30
0.000000
 10
129.100000
 20
73.475000
 30
0.000000
 10
128.925000
 20
72.375000
 30
0.000000
 10
129.150000
 20
71.325000
 30
0.000000
 10
129.200000
 20
71.100000
 30
0.000000
 10
129.550000
 20
71.600000
 30
0.000000
 10
129.700000
 20
71.775000
 30
0.000000
 10
129.900000
 20
72.050000
 30
0.000000
 10
130.150000
 20
72.325000
 30
0.000000
 10
130.200000
 20
72.675000
 30
0.000000
 10
130.300000
 20
73.225000
 30
0.000000
 10
130.175000
 20
73.775000
 30
0.000000
 10
130.125000
 20
74.350000
 30
0.000000
 10
130.100000
 20
74.525000
 30
0.000000
 10
129.900000
 20
74.700000
 30
0.000000
 10
129.950000
 20
74.900000
 30
0.000000
 10
130.000000
 20
75.050000
 30
0.000000
 10
130.225000
 20
75.150000
 30
0.000000
 10
130.350000
 20
75.075000
 30
0.000000
 10
130.575000
 20
74.925000
 30
0.000000
 10
130.700000
 20
74.625000
 30
0.000000
 10
130.800000
 20
74.375000
 30
0.000000
 10
130.975000
 20
73.825000
 30
0.000000
 10
131.300000
 20
73.225000
 30
0.000000
 10
131.200000
 20
72.650000
 30
0.000000
 10
131.100000
 20
72.025000
 30
0.000000
 10
130.600000
 20
71.550000
 30
0.000000
 10
130.300000
 20
71.000000
 30
0.000000
 10
130.175000
 20
70.825000
 30
0.000000
 10
129.700000
 20
70.500000
 30
0.000000
 10
129.925000
 20
70.475000
 30
0.000000
 10
130.300000
 20
70.425000
 30
0.000000
 10
130.600000
 20
70.725000
 30
0.000000
 10
130.900000
 20
70.925000
 30
0.000000
 10
131.125000
 20
71.050000
 30
0.000000
 10
131.325000
 20
71.200000
 30
0.000000
 10
131.500000
 20
71.400000
 30
0.000000
 10
131.800000
 20
71.775000
 30
0.000000
 10
132.125000
 20
72.150000
 30
0.000000
 10
132.325000
 20
72.575000
 30
0.000000
 10
132.475000
 20
72.950000
 30
0.000000
 10
132.325000
 20
73.425000
 30
0.000000
 10
132.550000
 20
73.750000
 30
0.000000
 10
132.675000
 20
73.925000
 30
0.000000
 10
133.050000
 20
73.900000
 30
0.000000
 10
133.175000
 20
73.725000
 30
0.000000
 10
133.375000
 20
73.375000
 30
0.000000
 10
133.450000
 20
72.900000
 30
0.000000
 10
133.275000
 20
72.525000
 30
0.000000
 10
133.025000
 20
71.875000
 30
0.000000
 10
132.475000
 20
71.400000
 30
0.000000
 10
132.025000
 20
70.850000
 30
0.000000
 10
131.800000
 20
70.600000
 30
0.000000
 10
131.500000
 20
70.375000
 30
0.000000
 10
131.250000
 20
70.100000
 30
0.000000
 10
131.225000
 20
70.050000
 30
0.000000
 10
131.225000
 20
69.925000
 30
0.000000
 10
131.275000
 20
69.925000
 30
0.000000
 10
131.750000
 20
70.050000
 30
0.000000
 10
132.175000
 20
70.350000
 30
0.000000
 10
132.675000
 20
70.425000
 30
0.000000
 10
133.150000
 20
70.475000
 30
0.000000
 10
133.650000
 20
70.425000
 30
0.000000
 10
134.100000
 20
70.225000
 30
0.000000
 10
134.700000
 20
69.975000
 30
0.000000
 10
135.375000
 20
69.650000
 30
0.000000
 10
135.700000
 20
69.100000
 30
0.000000
 10
135.850000
 20
68.850000
 30
0.000000
 10
135.225000
 20
68.725000
 30
0.000000
 10
134.950000
 20
68.725000
 30
0.000000
 10
134.475000
 20
68.750000
 30
0.000000
 10
134.075000
 20
69.225000
 30
0.000000
 10
133.600000
 20
69.200000
 30
0.000000
 10
132.100000
 20
69.075000
 30
0.000000
 10
130.625000
 20
68.575000
 30
0.000000
 10
129.125000
 20
68.225000
 30
0.000000
 10
128.950000
 20
68.200000
 30
0.000000
 10
128.775000
 20
68.125000
 30
0.000000
 10
128.600000
 20
68.050000
 30
0.000000
  0
SPLINE
  5
9f5
100
AcDbEntity
  8
0
370
    20
100
AcDbSpline
210
0.000000
220
0.000000
230
1.000000
 70
     9
 71
     3
 72
    29
 73
    25
 74
     0
 42
0.0000001
 43
0.0000001
 44
0.0000000001
 40
0.000000
 40
0.000000
 40
0.000000
 40
0.000000
 40
4.447752
 40
4.447752
 40
4.447752
 40
4.732796
 40
4.732796
 40
4.732796
 40
5.036934
 40
5.036934
 40
5.036934
 40
5.307351
 40
5.307351
 40
5.307351
 40
9.751518
 40
9.751518
 40
9.751518
 40
10.036562
 40
10.036562
 40
10.036562
 40
10.337602
 40
10.337602
 40
10.337602
 40
10.642766
 40
10.642766
 40
10.642766
 40
10.642766
 10
144.575000
 20
78.750000
 30
0.000000
 10
144.575000
 20
78.750000
 30
0.000000
 10
148.975000
 20
78.100000
 30
0.000000
 10
148.975000
 20
78.100000
 30
0.000000
 10
149.075000
 20
78.075000
 30
0.000000
 10
149.175000
 20
77.975000
 30
0.000000
 10
149.150000
 20
77.875000
 30
0.000000
 10
149.150000
 20
77.875000
 30
0.000000
 10
149.100000
 20
77.575000
 30
0.000000
 10
149.100000
 20
77.575000
 30
0.000000
 10
149.100000
 20
77.475000
 30
0.000000
 10
148.975000
 20
77.400000
 30
0.000000
 10
148.875000
 20
77.425000
 30
0.000000
 10
148.875000
 20
77.425000
 30
0.000000
 10
144.475000
 20
78.050000
 30
0.000000
 10
144.475000
 20
78.050000
 30
0.000000
 10
144.375000
 20
78.075000
 30
0.000000
 10
144.275000
 20
78.175000
 30
0.000000
 10
144.300000
 20
78.275000
 30
0.000000
 10
144.300000
 20
78.275000
 30
0.000000
 10
144.325000
 20
78.575000
 30
0.000000
 10
144.325000
 20
78.575000
 30
0.000000
 10
144.350000
 20
78.675000
 30
0.000000
 10
144.475000
 20
78.750000
 30
0.000000
 10
144.575000
 20
78.750000
 30
0.000000
  0
SPLINE
  5
9f8
100
AcDbEntity
  8
0
370
    20
100
AcDbSpline
210
0.000000
220
0.000000
230
1.000000
 70
     9
 71
     3
 72
    29
 73
    25
 74
     0
 42
0.0000001
 43
0.0000001
 44
0.0000000001
 40
0.000000
 40
0.000000
 40
0.000000
 40
0.000000
 40
4.476187
 40
4.476187
 40
4.476187
 40
4.741941
 40
4.741941
 40
4.741941
 40
5.046079
 40
5.046079
 40
5.046079
 40
5.331123
 40
5.331123
 40
5.331123
 40
9.803608
 40
9.803608
 40
9.803608
 40
10.069362
 40
10.069362
 40
10.069362
 40
10.398185
 40
10.398185
 40
10.398185
 40
10.683229
 40
10.683229
 40
10.683229
 40
10.683229
 10
151.250000
 20
77.425000
 30
0.000000
 10
151.250000
 20
77.425000
 30
0.000000
 10
155.675000
 20
76.750000
 30
0.000000
 10
155.675000
 20
76.750000
 30
0.000000
 10
155.775000
 20
76.750000
 30
0.000000
 10
155.850000
 20
76.650000
 30
0.000000
 10
155.850000
 20
76.550000
 30
0.000000
 10
155.850000
 20
76.550000
 30
0.000000
 10
155.800000
 20
76.250000
 30
0.000000
 10
155.800000
 20
76.250000
 30
0.000000
 10
155.775000
 20
76.150000
 30
0.000000
 10
155.675000
 20
76.075000
 30
0.000000
 10
155.575000
 20
76.075000
 30
0.000000
 10
155.575000
 20
76.075000
 30
0.000000
 10
151.150000
 20
76.725000
 30
0.000000
 10
151.150000
 20
76.725000
 30
0.000000
 10
151.075000
 20
76.750000
 30
0.000000
 10
150.975000
 20
76.850000
 30
0.000000
 10
150.975000
 20
76.925000
 30
0.000000
 10
150.975000
 20
76.925000
 30
0.000000
 10
151.025000
 20
77.250000
 30
0.000000
 10
151.025000
 20
77.250000
 30
0.000000
 10
151.050000
 20
77.350000
 30
0.000000
 10
151.150000
 20
77.425000
 30
0.000000
 10
151.250000
 20
77.425000
 30
0.000000
  0
SPLINE
  5
9fb
100
AcDbEntity
  8
0
370
    20
100
AcDbSpline
210
0.000000
220
0.000000
230
1.000000
 70
     9
 71
     3
 72
    29
 73
    25
 74
     0
 42
0.0000001
 43
0.0000001
 44
0.0000000001
 40
0.000000
 40
0.000000
 40
0.000000
 40
0.000000
 40
4.447752
 40
4.447752
 40
4.447752
 40
4.732796
 40
4.732796
 40
4.732796
 40
5.036934
 40
5.036934
 40
5.036934
 40
5.307351
 40
5.307351
 40
5.307351
 40
9.751518
 40
9.751518
 40
9.751518
 40
10.036562
 40
10.036562
 40
10.036562
 40
10.337602
 40
10.337602
 40
10.337602
 40
10.642766
 40
10.642766
 40
10.642766
 40
10.642766
 10
144.575000
 20
76.725000
 30
0.000000
 10
144.575000
 20
76.725000
 30
0.000000
 10
148.975000
 20
76.075000
 30
0.000000
 10
148.975000
 20
76.075000
 30
0.000000
 10
149.075000
 20
76.050000
 30
0.000000
 10
149.175000
 20
75.950000
 30
0.000000
 10
149.150000
 20
75.850000
 30
0.000000
 10
149.150000
 20
75.850000
 30
0.000000
 10
149.100000
 20
75.550000
 30
0.000000
 10
149.100000
 20
75.550000
 30
0.000000
 10
149.100000
 20
75.450000
 30
0.000000
 10
148.975000
 20
75.375000
 30
0.000000
 10
148.875000
 20
75.400000
 30
0.000000
 10
148.875000
 20
75.400000
 30
0.000000
 10
144.475000
 20
76.025000
 30
0.000000
 10
144.475000
 20
76.025000
 30
0.000000
 10
144.375000
 20
76.050000
 30
0.000000
 10
144.275000
 20
76.150000
 30
0.000000
 10
144.300000
 20
76.250000
 30
0.000000
 10
144.300000
 20
76.250000
 30
0.000000
 10
144.325000
 20
76.550000
 30
0.000000
 10
144.325000
 20
76.550000
 30
0.000000
 10
144.350000
 20
76.650000
 30
0.000000
 10
144.475000
 20
76.725000
 30
0.000000
 10
144.575000
 20
76.725000
 30
0.000000
  0
SPLINE
  5
9fe
100
AcDbEntity
  8
0
370
    20
100
AcDbSpline
210
0.000000
220
0.000000
230
1.000000
 70
     9
 71
     3
 72
    29
 73
    25
 74
     0
 42
0.0000001
 43
0.0000001
 44
0.0000000001
 40
0.000000
 40
0.000000
 40
0.000000
 40
0.000000
 40
4.451474
 40
4.451474
 40
4.451474
 40
4.717228
 40
4.717228
 40
4.717228
 40
5.043188
 40
5.043188
 40
5.043188
 40
5.334736
 40
5.334736
 40
5.334736
 40
9.782488
 40
9.782488
 40
9.782488
 40
10.048242
 40
10.048242
 40
10.048242
 40
10.377065
 40
10.377065
 40
10.377065
 40
10.662109
 40
10.662109
 40
10.662109
 40
10.662109
 10
151.375000
 20
75.725000
 30
0.000000
 10
151.375000
 20
75.725000
 30
0.000000
 10
155.775000
 20
75.050000
 30
0.000000
 10
155.775000
 20
75.050000
 30
0.000000
 10
155.875000
 20
75.050000
 30
0.000000
 10
155.975000
 20
74.950000
 30
0.000000
 10
155.950000
 20
74.850000
 30
0.000000
 10
155.950000
 20
74.850000
 30
0.000000
 10
155.925000
 20
74.525000
 30
0.000000
 10
155.925000
 20
74.525000
 30
0.000000
 10
155.900000
 20
74.450000
 30
0.000000
 10
155.775000
 20
74.350000
 30
0.000000
 10
155.675000
 20
74.375000
 30
0.000000
 10
155.675000
 20
74.375000
 30
0.000000
 10
151.275000
 20
75.025000
 30
0.000000
 10
151.275000
 20
75.025000
 30
0.000000
 10
151.175000
 20
75.050000
 30
0.000000
 10
151.075000
 20
75.125000
 30
0.000000
 10
151.100000
 20
75.225000
 30
0.000000
 10
151.100000
 20
75.225000
 30
0.000000
 10
151.150000
 20
75.550000
 30
0.000000
 10
151.150000
 20
75.550000
 30
0.000000
 10
151.150000
 20
75.650000
 30
0.000000
 10
151.275000
 20
75.725000
 30
0.000000
 10
151.375000
 20
75.725000
 30
0.000000
  0
SPLINE
  5
a01
100
AcDbEntity
  8
0
370
    20
100
AcDbSpline
210
0.000000
220
0.000000
230
1.000000
 70
     9
 71
     3
 72
    29
 73
    25
 74
     0
 42
0.0000001
 43
0.0000001
 44
0.0000000001
 40
0.000000
 40
0.000000
 40
0.000000
 40
0.000000
 40
4.472695
 40
4.472695
 40
4.472695
 40
4.777859
 40
4.777859
 40
4.777859
 40
5.103819
 40
5.103819
 40
5.103819
 40
5.383327
 40
5.383327
 40
5.383327
 40
9.858607
 40
9.858607
 40
9.858607
 40
10.143651
 40
10.143651
 40
10.143651
 40
10.444690
 40
10.444690
 40
10.444690
 40
10.736238
 40
10.736238
 40
10.736238
 40
10.736238
 10
144.350000
 20
72.425000
 30
0.000000
 10
144.350000
 20
72.425000
 30
0.000000
 10
148.800000
 20
71.975000
 30
0.000000
 10
148.800000
 20
71.975000
 30
0.000000
 10
148.900000
 20
71.925000
 30
0.000000
 10
148.975000
 20
71.825000
 30
0.000000
 10
148.975000
 20
71.725000
 30
0.000000
 10
148.975000
 20
71.725000
 30
0.000000
 10
148.950000
 20
71.400000
 30
0.000000
 10
148.950000
 20
71.400000
 30
0.000000
 10
148.925000
 20
71.300000
 30
0.000000
 10
148.800000
 20
71.250000
 30
0.000000
 10
148.700000
 20
71.275000
 30
0.000000
 10
148.700000
 20
71.275000
 30
0.000000
 10
144.250000
 20
71.750000
 30
0.000000
 10
144.250000
 20
71.750000
 30
0.000000
 10
144.150000
 20
71.775000
 30
0.000000
 10
144.075000
 20
71.875000
 30
0.000000
 10
144.075000
 20
71.975000
 30
0.000000
 10
144.075000
 20
71.975000
 30
0.000000
 10
144.100000
 20
72.275000
 30
0.000000
 10
144.100000
 20
72.275000
 30
0.000000
 10
144.150000
 20
72.375000
 30
0.000000
 10
144.250000
 20
72.450000
 30
0.000000
 10
144.350000
 20
72.425000
 30
0.000000
  0
SPLINE
  5
a04
100
AcDbEntity
  8
0
370
    20
100
AcDbSpline
210
0.000000
220
0.000000
230
1.000000
 70
     9
 71
     3
 72
    29
 73
    25
 74
     0
 42
0.0000001
 43
0.0000001
 44
0.0000000001
 40
0.000000
 40
0.000000
 40
0.000000
 40
0.000000
 40
4.451474
 40
4.451474
 40
4.451474
 40
4.717228
 40
4.717228
 40
4.717228
 40
5.046052
 40
5.046052
 40
5.046052
 40
5.316468
 40
5.316468
 40
5.316468
 40
9.764220
 40
9.764220
 40
9.764220
 40
10.029974
 40
10.029974
 40
10.029974
 40
10.355934
 40
10.355934
 40
10.355934
 40
10.661098
 40
10.661098
 40
10.661098
 40
10.661098
 10
151.500000
 20
71.550000
 30
0.000000
 10
151.500000
 20
71.550000
 30
0.000000
 10
155.900000
 20
70.875000
 30
0.000000
 10
155.900000
 20
70.875000
 30
0.000000
 10
156.000000
 20
70.850000
 30
0.000000
 10
156.100000
 20
70.775000
 30
0.000000
 10
156.075000
 20
70.675000
 30
0.000000
 10
156.075000
 20
70.675000
 30
0.000000
 10
156.025000
 20
70.350000
 30
0.000000
 10
156.025000
 20
70.350000
 30
0.000000
 10
156.025000
 20
70.250000
 30
0.000000
 10
155.900000
 20
70.175000
 30
0.000000
 10
155.800000
 20
70.200000
 30
0.000000
 10
155.800000
 20
70.200000
 30
0.000000
 10
151.400000
 20
70.850000
 30
0.000000
 10
151.400000
 20
70.850000
 30
0.000000
 10
151.300000
 20
70.850000
 30
0.000000
 10
151.200000
 20
70.950000
 30
0.000000
 10
151.225000
 20
71.050000
 30
0.000000
 10
151.225000
 20
71.050000
 30
0.000000
 10
151.250000
 20
71.375000
 30
0.000000
 10
151.250000
 20
71.375000
 30
0.000000
 10
151.275000
 20
71.450000
 30
0.000000
 10
151.400000
 20
71.550000
 30
0.000000
 10
151.500000
 20
71.550000
 30
0.000000
  0
SPLINE
  5
a07
100
AcDbEntity
  8
0
370
    20
100
AcDbSpline
210
0.000000
220
0.000000
230
1.000000
 70
     9
 71
     3
 72
    29
 73
    25
 74
     0
 42
0.0000001
 43
0.0000001
 44
0.0000000001
 40
0.000000
 40
0.000000
 40
0.000000
 40
0.000000
 40
4.472485
 40
4.472485
 40
4.472485
 40
4.757529
 40
4.757529
 40
4.757529
 40
5.061667
 40
5.061667
 40
5.061667
 40
5.332084
 40
5.332084
 40
5.332084
 40
9.801004
 40
9.801004
 40
9.801004
 40
10.086048
 40
10.086048
 40
10.086048
 40
10.390186
 40
10.390186
 40
10.390186
 40
10.675230
 40
10.675230
 40
10.675230
 40
10.675230
 10
144.500000
 20
74.900000
 30
0.000000
 10
144.500000
 20
74.900000
 30
0.000000
 10
148.925000
 20
74.250000
 30
0.000000
 10
148.925000
 20
74.250000
 30
0.000000
 10
149.025000
 20
74.225000
 30
0.000000
 10
149.100000
 20
74.125000
 30
0.000000
 10
149.100000
 20
74.025000
 30
0.000000
 10
149.100000
 20
74.025000
 30
0.000000
 10
149.050000
 20
73.725000
 30
0.000000
 10
149.050000
 20
73.725000
 30
0.000000
 10
149.025000
 20
73.625000
 30
0.000000
 10
148.925000
 20
73.550000
 30
0.000000
 10
148.825000
 20
73.575000
 30
0.000000
 10
148.825000
 20
73.575000
 30
0.000000
 10
144.400000
 20
74.200000
 30
0.000000
 10
144.400000
 20
74.200000
 30
0.000000
 10
144.300000
 20
74.225000
 30
0.000000
 10
144.225000
 20
74.325000
 30
0.000000
 10
144.225000
 20
74.425000
 30
0.000000
 10
144.225000
 20
74.425000
 30
0.000000
 10
144.275000
 20
74.725000
 30
0.000000
 10
144.275000
 20
74.725000
 30
0.000000
 10
144.300000
 20
74.825000
 30
0.000000
 10
144.400000
 20
74.900000
 30
0.000000
 10
144.500000
 20
74.900000
 30
0.000000
  0
SPLINE
  5
a0a
100
AcDbEntity
  8
0
370
    20
100
AcDbSpline
210
0.000000
220
0.000000
230
1.000000
 70
     9
 71
     3
 72
    29
 73
    25
 74
     0
 42
0.0000001
 43
0.0000001
 44
0.0000000001
 40
0.000000
 40
0.000000
 40
0.000000
 40
0.000000
 40
4.451474
 40
4.451474
 40
4.451474
 40
4.717228
 40
4.717228
 40
4.717228
 40
5.043188
 40
5.043188
 40
5.043188
 40
5.334736
 40
5.334736
 40
5.334736
 40
9.782488
 40
9.782488
 40
9.782488
 40
10.048242
 40
10.048242
 40
10.048242
 40
10.377065
 40
10.377065
 40
10.377065
 40
10.662109
 40
10.662109
 40
10.662109
 40
10.662109
 10
151.550000
 20
73.675000
 30
0.000000
 10
151.550000
 20
73.675000
 30
0.000000
 10
155.950000
 20
73.000000
 30
0.000000
 10
155.950000
 20
73.000000
 30
0.000000
 10
156.050000
 20
73.000000
 30
0.000000
 10
156.150000
 20
72.900000
 30
0.000000
 10
156.125000
 20
72.800000
 30
0.000000
 10
156.125000
 20
72.800000
 30
0.000000
 10
156.100000
 20
72.475000
 30
0.000000
 10
156.100000
 20
72.475000
 30
0.000000
 10
156.075000
 20
72.400000
 30
0.000000
 10
155.950000
 20
72.300000
 30
0.000000
 10
155.850000
 20
72.325000
 30
0.000000
 10
155.850000
 20
72.325000
 30
0.000000
 10
151.450000
 20
72.975000
 30
0.000000
 10
151.450000
 20
72.975000
 30
0.000000
 10
151.350000
 20
73.000000
 30
0.000000
 10
151.250000
 20
73.075000
 30
0.000000
 10
151.275000
 20
73.175000
 30
0.000000
 10
151.275000
 20
73.175000
 30
0.000000
 10
151.325000
 20
73.500000
 30
0.000000
 10
151.325000
 20
73.500000
 30
0.000000
 10
151.325000
 20
73.600000
 30
0.000000
 10
151.450000
 20
73.675000
 30
0.000000
 10
151.550000
 20
73.675000
 30
0.000000
  0
SPLINE
  5
a0d
100
AcDbEntity
  8
0
370
    20
100
AcDbSpline
210
0.000000
220
0.000000
230
1.000000
 70
     9
 71
     3
 72
    29
 73
    25
 74
     0
 42
0.0000001
 43
0.0000001
 44
0.0000000001
 40
0.000000
 40
0.000000
 40
0.000000
 40
0.000000
 40
4.455685
 40
4.455685
 40
4.455685
 40
4.738527
 40
4.738527
 40
4.738527
 40
5.038527
 40
5.038527
 40
5.038527
 40
5.323571
 40
5.323571
 40
5.323571
 40
9.778063
 40
9.778063
 40
9.778063
 40
10.060906
 40
10.060906
 40
10.060906
 40
10.360906
 40
10.360906
 40
10.360906
 40
10.661946
 40
10.661946
 40
10.661946
 40
10.661946
 10
151.375000
 20
69.100000
 30
0.000000
 10
151.375000
 20
69.100000
 30
0.000000
 10
155.825000
 20
68.875000
 30
0.000000
 10
155.825000
 20
68.875000
 30
0.000000
 10
155.925000
 20
68.850000
 30
0.000000
 10
156.025000
 20
68.775000
 30
0.000000
 10
156.025000
 20
68.675000
 30
0.000000
 10
156.025000
 20
68.675000
 30
0.000000
 10
156.025000
 20
68.375000
 30
0.000000
 10
156.025000
 20
68.375000
 30
0.000000
 10
156.000000
 20
68.275000
 30
0.000000
 10
155.900000
 20
68.175000
 30
0.000000
 10
155.800000
 20
68.200000
 30
0.000000
 10
155.800000
 20
68.200000
 30
0.000000
 10
151.350000
 20
68.400000
 30
0.000000
 10
151.350000
 20
68.400000
 30
0.000000
 10
151.250000
 20
68.425000
 30
0.000000
 10
151.150000
 20
68.500000
 30
0.000000
 10
151.150000
 20
68.600000
 30
0.000000
 10
151.150000
 20
68.600000
 30
0.000000
 10
151.150000
 20
68.900000
 30
0.000000
 10
151.150000
 20
68.900000
 30
0.000000
 10
151.175000
 20
69.000000
 30
0.000000
 10
151.275000
 20
69.100000
 30
0.000000
 10
151.375000
 20
69.100000
 30
0.000000
  0
SPLINE
  5
a10
100
AcDbEntity
  8
0
370
    20
100
AcDbSpline
210
0.000000
220
0.000000
230
1.000000
 70
     9
 71
     3
 72
    29
 73
    25
 74
     0
 42
0.0000001
 43
0.0000001
 44
0.0000000001
 40
0.000000
 40
0.000000
 40
0.000000
 40
0.000000
 40
4.455685
 40
4.455685
 40
4.455685
 40
4.738527
 40
4.738527
 40
4.738527
 40
5.038527
 40
5.038527
 40
5.038527
 40
5.323571
 40
5.323571
 40
5.323571
 40
9.779256
 40
9.779256
 40
9.779256
 40
10.026743
 40
10.026743
 40
10.026743
 40
10.351743
 40
10.351743
 40
10.351743
 40
10.617497
 40
10.617497
 40
10.617497
 40
10.617497
 10
144.250000
 20
69.650000
 30
0.000000
 10
144.250000
 20
69.650000
 30
0.000000
 10
148.700000
 20
69.425000
 30
0.000000
 10
148.700000
 20
69.425000
 30
0.000000
 10
148.800000
 20
69.400000
 30
0.000000
 10
148.925000
 20
69.325000
 30
0.000000
 10
148.900000
 20
69.225000
 30
0.000000
 10
148.900000
 20
69.225000
 30
0.000000
 10
148.900000
 20
68.925000
 30
0.000000
 10
148.900000
 20
68.925000
 30
0.000000
 10
148.875000
 20
68.825000
 30
0.000000
 10
148.775000
 20
68.725000
 30
0.000000
 10
148.675000
 20
68.750000
 30
0.000000
 10
148.675000
 20
68.750000
 30
0.000000
 10
144.225000
 20
68.975000
 30
0.000000
 10
144.225000
 20
68.975000
 30
0.000000
 10
144.150000
 20
68.975000
 30
0.000000
 10
144.025000
 20
69.075000
 30
0.000000
 10
144.050000
 20
69.150000
 30
0.000000
 10
144.050000
 20
69.150000
 30
0.000000
 10
144.050000
 20
69.475000
 30
0.000000
 10
144.050000
 20
69.475000
 30
0.000000
 10
144.050000
 20
69.575000
 30
0.000000
 10
144.150000
 20
69.650000
 30
0.000000
 10
144.250000
 20
69.650000
 30
0.000000
  0
SPLINE
  5
a13
100
AcDbEntity
  8
0
370
    20
100
AcDbSpline
210
0.000000
220
0.000000
230
1.000000
 70
     9
 71
     3
 72
    29
 73
    25
 74
     0
 42
0.0000001
 43
0.0000001
 44
0.0000000001
 40
0.000000
 40
0.000000
 40
0.000000
 40
0.000000
 40
4.480653
 40
4.480653
 40
4.480653
 40
4.730653
 40
4.730653
 40
4.730653
 40
5.005653
 40
5.005653
 40
5.005653
 40
5.255653
 40
5.255653
 40
5.255653
 40
9.759054
 40
9.759054
 40
9.759054
 40
10.024808
 40
10.024808
 40
10.024808
 40
10.299808
 40
10.299808
 40
10.299808
 40
10.584852
 40
10.584852
 40
10.584852
 40
10.584852
 10
151.450000
 20
67.225000
 30
0.000000
 10
151.450000
 20
67.225000
 30
0.000000
 10
155.925000
 20
67.000000
 30
0.000000
 10
155.925000
 20
67.000000
 30
0.000000
 10
156.025000
 20
67.000000
 30
0.000000
 10
156.150000
 20
66.925000
 30
0.000000
 10
156.125000
 20
66.850000
 30
0.000000
 10
156.125000
 20
66.850000
 30
0.000000
 10
156.125000
 20
66.575000
 30
0.000000
 10
156.125000
 20
66.575000
 30
0.000000
 10
156.100000
 20
66.475000
 30
0.000000
 10
156.025000
 20
66.400000
 30
0.000000
 10
155.925000
 20
66.425000
 30
0.000000
 10
155.925000
 20
66.425000
 30
0.000000
 10
151.425000
 20
66.600000
 30
0.000000
 10
151.425000
 20
66.600000
 30
0.000000
 10
151.325000
 20
66.625000
 30
0.000000
 10
151.225000
 20
66.675000
 30
0.000000
 10
151.225000
 20
66.775000
 30
0.000000
 10
151.225000
 20
66.775000
 30
0.000000
 10
151.225000
 20
67.050000
 30
0.000000
 10
151.225000
 20
67.050000
 30
0.000000
 10
151.250000
 20
67.150000
 30
0.000000
 10
151.350000
 20
67.225000
 30
0.000000
 10
151.450000
 20
67.225000
 30
0.000000
  0
SPLINE
  5
a16
100
AcDbEntity
  8
0
370
    20
100
AcDbSpline
210
0.000000
220
0.000000
230
1.000000
 70
     9
 71
     3
 72
    29
 73
    25
 74
     0
 42
0.0000001
 43
0.0000001
 44
0.0000000001
 40
0.000000
 40
0.000000
 40
0.000000
 40
0.000000
 40
4.504442
 40
4.504442
 40
4.504442
 40
4.751930
 40
4.751930
 40
4.751930
 40
5.026930
 40
5.026930
 40
5.026930
 40
5.276930
 40
5.276930
 40
5.276930
 40
9.781372
 40
9.781372
 40
9.781372
 40
10.028859
 40
10.028859
 40
10.028859
 40
10.278859
 40
10.278859
 40
10.278859
 40
10.544613
 40
10.544613
 40
10.544613
 40
10.544613
 10
144.175000
 20
67.275000
 30
0.000000
 10
144.175000
 20
67.275000
 30
0.000000
 10
148.675000
 20
67.075000
 30
0.000000
 10
148.675000
 20
67.075000
 30
0.000000
 10
148.750000
 20
67.050000
 30
0.000000
 10
148.875000
 20
67.000000
 30
0.000000
 10
148.850000
 20
66.900000
 30
0.000000
 10
148.850000
 20
66.900000
 30
0.000000
 10
148.850000
 20
66.625000
 30
0.000000
 10
148.850000
 20
66.625000
 30
0.000000
 10
148.850000
 20
66.525000
 30
0.000000
 10
148.750000
 20
66.450000
 30
0.000000
 10
148.650000
 20
66.475000
 30
0.000000
 10
148.650000
 20
66.475000
 30
0.000000
 10
144.150000
 20
66.675000
 30
0.000000
 10
144.150000
 20
66.675000
 30
0.000000
 10
144.050000
 20
66.675000
 30
0.000000
 10
143.950000
 20
66.750000
 30
0.000000
 10
143.975000
 20
66.850000
 30
0.000000
 10
143.975000
 20
66.850000
 30
0.000000
 10
143.975000
 20
67.100000
 30
0.000000
 10
143.975000
 20
67.100000
 30
0.000000
 10
143.975000
 20
67.200000
 30
0.000000
 10
144.075000
 20
67.275000
 30
0.000000
 10
144.175000
 20
67.275000
 30
0.000000
  0
CIRCLE
  5
a19
100
AcDbEntity
  8
0
370
    20
100
AcDbCircle
 10
150.000000
 20
77.550000
 40
0.550000
  0
CIRCLE
  5
a1c
100
AcDbEntity
  8
0
370
    20
100
AcDbCircle
 10
150.050000
 20
75.925000
 40
0.550000
  0
SPLINE
  5
a1f
100
AcDbEntity
  8
0
370
    20
100
AcDbSpline
210
0.000000
220
0.000000
230
1.000000
 70
     8
 71
     3
 72
    23
 73
    19
 74
     0
 42
0.0000001
 43
0.0000001
 44
0.0000000001
 40
0.000000
 40
0.000000
 40
0.000000
 40
0.000000
 40
2.669855
 40
2.669855
 40
2.669855
 40
3.120549
 40
3.120549
 40
3.120549
 40
5.832213
 40
5.832213
 40
5.832213
 40
7.144654
 40
7.144654
 40
7.144654
 40
10.906053
 40
10.906053
 40
10.906053
 40
13.965669
 40
13.965669
 40
13.965669
 40
13.965669
 10
126.000000
 20
49.575000
 30
0.000000
 10
126.875000
 20
49.500000
 30
0.000000
 10
127.775000
 20
49.400000
 30
0.000000
 10
128.650000
 20
49.250000
 30
0.000000
 10
128.775000
 20
49.225000
 30
0.000000
 10
128.075000
 20
49.225000
 30
0.000000
 10
128.200000
 20
49.275000
 30
0.000000
 10
129.075000
 20
49.500000
 30
0.000000
 10
129.975000
 20
49.650000
 30
0.000000
 10
130.850000
 20
49.850000
 30
0.000000
 10
131.275000
 20
49.975000
 30
0.000000
 10
132.400000
 20
50.475000
 30
0.000000
 10
132.100000
 20
50.250000
 30
0.000000
 10
131.100000
 20
49.550000
 30
0.000000
 10
130.150000
 20
48.550000
 30
0.000000
 10
128.825000
 20
48.400000
 30
0.000000
 10
127.925000
 20
48.300000
 30
0.000000
 10
126.600000
 20
48.900000
 30
0.000000
 10
126.000000
 20
49.575000
 30
0.000000
  0
SPLINE
  5
a22
100
AcDbEntity
  8
0
370
    20
100
AcDbSpline
210
0.000000
220
0.000000
230
1.000000
 70
     8
 71
     3
 72
    23
 73
    19
 74
     0
 42
0.0000001
 43
0.0000001
 44
0.0000000001
 40
0.000000
 40
0.000000
 40
0.000000
 40
0.000000
 40
2.669855
 40
2.669855
 40
2.669855
 40
3.120549
 40
3.120549
 40
3.120549
 40
5.832213
 40
5.832213
 40
5.832213
 40
7.144654
 40
7.144654
 40
7.144654
 40
10.906053
 40
10.906053
 40
10.906053
 40
13.965669
 40
13.965669
 40
13.965669
 40
13.965669
 10
135.825000
 20
48.375000
 30
0.000000
 10
134.925000
 20
48.475000
 30
0.000000
 10
134.050000
 20
48.550000
 30
0.000000
 10
133.175000
 20
48.700000
 30
0.000000
 10
133.025000
 20
48.725000
 30
0.000000
 10
133.725000
 20
48.725000
 30
0.000000
 10
133.625000
 20
48.675000
 30
0.000000
 10
132.750000
 20
48.450000
 30
0.000000
 10
131.825000
 20
48.300000
 30
0.000000
 10
130.975000
 20
48.100000
 30
0.000000
 10
130.550000
 20
47.975000
 30
0.000000
 10
129.425000
 20
47.475000
 30
0.000000
 10
129.725000
 20
47.700000
 30
0.000000
 10
130.725000
 20
48.400000
 30
0.000000
 10
131.650000
 20
49.400000
 30
0.000000
 10
133.000000
 20
49.550000
 30
0.000000
 10
133.875000
 20
49.650000
 30
0.000000
 10
135.225000
 20
49.050000
 30
0.000000
 10
135.825000
 20
48.375000
 30
0.000000
  0
SPLINE
  5
a25
100
AcDbEntity
  8
0
370
    20
100
AcDbSpline
210
0.000000
220
0.000000
230
1.000000
 70
     8
 71
     3
 72
    23
 73
    19
 74
     0
 42
0.0000001
 43
0.0000001
 44
0.0000000001
 40
0.000000
 40
0.000000
 40
0.000000
 40
0.000000
 40
2.669855
 40
2.669855
 40
2.669855
 40
3.120549
 40
3.120549
 40
3.120549
 40
5.832213
 40
5.832213
 40
5.832213
 40
7.113326
 40
7.113326
 40
7.113326
 40
10.840674
 40
10.840674
 40
10.840674
 40
13.900290
 40
13.900290
 40
13.900290
 40
13.900290
 10
121.050000
 20
48.500000
 30
0.000000
 10
121.925000
 20
48.600000
 30
0.000000
 10
122.825000
 20
48.700000
 30
0.000000
 10
123.700000
 20
48.825000
 30
0.000000
 10
123.825000
 20
48.850000
 30
0.000000
 10
123.125000
 20
48.850000
 30
0.000000
 10
123.250000
 20
48.800000
 30
0.000000
 10
124.125000
 20
48.575000
 30
0.000000
 10
125.025000
 20
48.450000
 30
0.000000
 10
125.900000
 20
48.225000
 30
0.000000
 10
126.325000
 20
48.125000
 30
0.000000
 10
127.450000
 20
47.600000
 30
0.000000
 10
127.125000
 20
47.850000
 30
0.000000
 10
126.150000
 20
48.550000
 30
0.000000
 10
125.200000
 20
49.550000
 30
0.000000
 10
123.875000
 20
49.675000
 30
0.000000
 10
122.975000
 20
49.775000
 30
0.000000
 10
121.650000
 20
49.175000
 30
0.000000
 10
121.050000
 20
48.500000
 30
0.000000
  0
SPLINE
  5
a28
100
AcDbEntity
  8
0
370
    20
100
AcDbSpline
210
0.000000
220
0.000000
230
1.000000
 70
     8
 71
     3
 72
    17
 73
    13
 74
     0
 42
0.0000001
 43
0.0000001
 44
0.0000000001
 40
0.000000
 40
0.000000
 40
0.000000
 40
0.000000
 40
1.550000
 40
1.550000
 40
1.550000
 40
3.100000
 40
3.100000
 40
3.100000
 40
5.274425
 40
5.274425
 40
5.274425
 40
8.349425
 40
8.349425
 40
8.349425
 40
8.349425
 10
127.725000
 20
54.925000
 30
0.000000
 10
127.725000
 20
54.400000
 30
0.000000
 10
127.350000
 20
53.750000
 30
0.000000
 10
127.725000
 20
53.375000
 30
0.000000
 10
128.075000
 20
53.000000
 30
0.000000
 10
128.800000
 20
53.150000
 30
0.000000
 10
129.275000
 20
53.375000
 30
0.000000
 10
129.925000
 20
53.700000
 30
0.000000
 10
131.325000
 20
54.400000
 30
0.000000
 10
130.800000
 20
54.925000
 30
0.000000
 10
130.075000
 20
55.650000
 30
0.000000
 10
128.900000
 20
55.300000
 30
0.000000
 10
127.725000
 20
54.925000
 30
0.000000
  0
SPLINE
  5
a2b
100
AcDbEntity
  8
0
370
    20
100
AcDbSpline
210
0.000000
220
0.000000
230
1.000000
 70
     8
 71
     3
 72
    17
 73
    13
 74
     0
 42
0.0000001
 43
0.0000001
 44
0.0000000001
 40
0.000000
 40
0.000000
 40
0.000000
 40
0.000000
 40
1.564649
 40
1.564649
 40
1.564649
 40
3.104941
 40
3.104941
 40
3.104941
 40
5.296544
 40
5.296544
 40
5.296544
 40
8.395939
 40
8.395939
 40
8.395939
 40
8.395939
 10
133.750000
 20
53.750000
 30
0.000000
 10
133.625000
 20
54.275000
 30
0.000000
 10
133.850000
 20
55.000000
 30
0.000000
 10
133.400000
 20
55.275000
 30
0.000000
 10
132.975000
 20
55.550000
 30
0.000000
 10
132.300000
 20
55.250000
 30
0.000000
 10
131.900000
 20
54.925000
 30
0.000000
 10
131.325000
 20
54.450000
 30
0.000000
 10
130.125000
 20
53.475000
 30
0.000000
 10
130.725000
 20
53.075000
 30
0.000000
 10
131.625000
 20
52.525000
 30
0.000000
 10
132.675000
 20
53.150000
 30
0.000000
 10
133.750000
 20
53.750000
 30
0.000000
  0
SPLINE
  5
a2e
100
AcDbEntity
  8
0
370
    20
100
AcDbSpline
210
0.000000
220
0.000000
230
1.000000
 70
     8
 71
     3
 72
    17
 73
    13
 74
     0
 42
0.0000001
 43
0.0000001
 44
0.0000000001
 40
0.000000
 40
0.000000
 40
0.000000
 40
0.000000
 40
1.550000
 40
1.550000
 40
1.550000
 40
3.100000
 40
3.100000
 40
3.100000
 40
5.292031
 40
5.292031
 40
5.292031
 40
8.392031
 40
8.392031
 40
8.392031
 40
8.392031
 10
127.100000
 20
55.150000
 30
0.000000
 10
127.100000
 20
54.625000
 30
0.000000
 10
127.475000
 20
53.975000
 30
0.000000
 10
127.100000
 20
53.600000
 30
0.000000
 10
126.725000
 20
53.250000
 30
0.000000
 10
126.025000
 20
53.375000
 30
0.000000
 10
125.550000
 20
53.600000
 30
0.000000
 10
124.900000
 20
53.925000
 30
0.000000
 10
123.475000
 20
54.625000
 30
0.000000
 10
124.000000
 20
55.150000
 30
0.000000
 10
124.750000
 20
55.900000
 30
0.000000
 10
125.925000
 20
55.525000
 30
0.000000
 10
127.100000
 20
55.150000
 30
0.000000
  0
SPLINE
  5
a31
100
AcDbEntity
  8
0
370
    20
100
AcDbSpline
210
0.000000
220
0.000000
230
1.000000
 70
     8
 71
     3
 72
    17
 73
    13
 74
     0
 42
0.0000001
 43
0.0000001
 44
0.0000000001
 40
0.000000
 40
0.000000
 40
0.000000
 40
0.000000
 40
1.550000
 40
1.550000
 40
1.550000
 40
2.575000
 40
2.575000
 40
2.575000
 40
4.447165
 40
4.447165
 40
4.447165
 40
6.522165
 40
6.522165
 40
6.522165
 40
6.522165
 10
121.650000
 20
55.300000
 30
0.000000
 10
121.650000
 20
54.775000
 30
0.000000
 10
121.400000
 20
54.100000
 30
0.000000
 10
121.650000
 20
53.750000
 30
0.000000
 10
121.900000
 20
53.375000
 30
0.000000
 10
122.375000
 20
53.500000
 30
0.000000
 10
122.675000
 20
53.750000
 30
0.000000
 10
123.125000
 20
54.075000
 30
0.000000
 10
124.075000
 20
54.775000
 30
0.000000
 10
123.725000
 20
55.300000
 30
0.000000
 10
123.225000
 20
56.025000
 30
0.000000
 10
122.425000
 20
55.650000
 30
0.000000
 10
121.650000
 20
55.300000
 30
0.000000
  0
SPLINE
  5
a34
100
AcDbEntity
  8
0
370
    20
100
AcDbSpline
210
0.000000
220
0.000000
230
1.000000
 70
     8
 71
     3
 72
    17
 73
    13
 74
     0
 42
0.0000001
 43
0.0000001
 44
0.0000000001
 40
0.000000
 40
0.000000
 40
0.000000
 40
0.000000
 40
1.350000
 40
1.350000
 40
1.350000
 40
2.375000
 40
2.375000
 40
2.375000
 40
4.085263
 40
4.085263
 40
4.085263
 40
6.160263
 40
6.160263
 40
6.160263
 40
6.160263
 10
134.425000
 20
54.975000
 30
0.000000
 10
134.425000
 20
54.525000
 30
0.000000
 10
134.175000
 20
53.925000
 30
0.000000
 10
134.425000
 20
53.625000
 30
0.000000
 10
134.650000
 20
53.300000
 30
0.000000
 10
135.150000
 20
53.425000
 30
0.000000
 10
135.450000
 20
53.625000
 30
0.000000
 10
135.900000
 20
53.925000
 30
0.000000
 10
136.850000
 20
54.525000
 30
0.000000
 10
136.500000
 20
54.975000
 30
0.000000
 10
136.000000
 20
55.650000
 30
0.000000
 10
135.200000
 20
55.300000
 30
0.000000
 10
134.425000
 20
54.975000
 30
0.000000
  0
SPLINE
  5
a37
100
AcDbEntity
  8
0
370
    20
100
AcDbSpline
210
0.000000
220
0.000000
230
1.000000
 70
     8
 71
     3
 72
    23
 73
    19
 74
     0
 42
0.0000001
 43
0.0000001
 44
0.0000000001
 40
0.000000
 40
0.000000
 40
0.000000
 40
0.000000
 40
2.669855
 40
2.669855
 40
2.669855
 40
3.120549
 40
3.120549
 40
3.120549
 40
5.832213
 40
5.832213
 40
5.832213
 40
7.137252
 40
7.137252
 40
7.137252
 40
10.886418
 40
10.886418
 40
10.886418
 40
13.946034
 40
13.946034
 40
13.946034
 40
13.946034
 10
125.975000
 20
61.225000
 30
0.000000
 10
126.875000
 20
61.125000
 30
0.000000
 10
127.750000
 20
61.025000
 30
0.000000
 10
128.625000
 20
60.900000
 30
0.000000
 10
128.750000
 20
60.875000
 30
0.000000
 10
128.075000
 20
60.875000
 30
0.000000
 10
128.175000
 20
60.925000
 30
0.000000
 10
129.050000
 20
61.150000
 30
0.000000
 10
129.950000
 20
61.275000
 30
0.000000
 10
130.825000
 20
61.500000
 30
0.000000
 10
131.250000
 20
61.625000
 30
0.000000
 10
132.375000
 20
62.125000
 30
0.000000
 10
132.075000
 20
61.875000
 30
0.000000
 10
131.075000
 20
61.200000
 30
0.000000
 10
130.125000
 20
60.175000
 30
0.000000
 10
128.800000
 20
60.050000
 30
0.000000
 10
127.900000
 20
59.950000
 30
0.000000
 10
126.575000
 20
60.550000
 30
0.000000
 10
125.975000
 20
61.225000
 30
0.000000
  0
SPLINE
  5
a3a
100
AcDbEntity
  8
0
370
    20
100
AcDbSpline
210
0.000000
220
0.000000
230
1.000000
 70
     8
 71
     3
 72
    23
 73
    19
 74
     0
 42
0.0000001
 43
0.0000001
 44
0.0000000001
 40
0.000000
 40
0.000000
 40
0.000000
 40
0.000000
 40
2.669855
 40
2.669855
 40
2.669855
 40
3.120549
 40
3.120549
 40
3.120549
 40
5.832213
 40
5.832213
 40
5.832213
 40
7.120866
 40
7.120866
 40
7.120866
 40
10.860518
 40
10.860518
 40
10.860518
 40
13.920134
 40
13.920134
 40
13.920134
 40
13.920134
 10
136.200000
 20
60.775000
 30
0.000000
 10
135.325000
 20
60.850000
 30
0.000000
 10
134.425000
 20
60.950000
 30
0.000000
 10
133.550000
 20
61.100000
 30
0.000000
 10
133.425000
 20
61.125000
 30
0.000000
 10
134.125000
 20
61.125000
 30
0.000000
 10
134.000000
 20
61.075000
 30
0.000000
 10
133.125000
 20
60.850000
 30
0.000000
 10
132.225000
 20
60.700000
 30
0.000000
 10
131.350000
 20
60.500000
 30
0.000000
 10
130.925000
 20
60.375000
 30
0.000000
 10
129.800000
 20
59.875000
 30
0.000000
 10
130.125000
 20
60.100000
 30
0.000000
 10
131.100000
 20
60.800000
 30
0.000000
 10
132.050000
 20
61.800000
 30
0.000000
 10
133.375000
 20
61.950000
 30
0.000000
 10
134.275000
 20
62.050000
 30
0.000000
 10
135.600000
 20
61.450000
 30
0.000000
 10
136.200000
 20
60.775000
 30
0.000000
  0
SPLINE
  5
a3d
100
AcDbEntity
  8
0
370
    20
100
AcDbSpline
210
0.000000
220
0.000000
230
1.000000
 70
     8
 71
     3
 72
    23
 73
    19
 74
     0
 42
0.0000001
 43
0.0000001
 44
0.0000000001
 40
0.000000
 40
0.000000
 40
0.000000
 40
0.000000
 40
2.669855
 40
2.669855
 40
2.669855
 40
3.094855
 40
3.094855
 40
3.094855
 40
5.811930
 40
5.811930
 40
5.811930
 40
7.093043
 40
7.093043
 40
7.093043
 40
10.842210
 40
10.842210
 40
10.842210
 40
13.901826
 40
13.901826
 40
13.901826
 40
13.901826
 10
120.900000
 20
60.625000
 30
0.000000
 10
121.800000
 20
60.725000
 30
0.000000
 10
122.675000
 20
60.825000
 30
0.000000
 10
123.550000
 20
60.950000
 30
0.000000
 10
123.700000
 20
60.975000
 30
0.000000
 10
123.000000
 20
60.975000
 30
0.000000
 10
123.125000
 20
60.950000
 30
0.000000
 10
123.975000
 20
60.700000
 30
0.000000
 10
124.900000
 20
60.575000
 30
0.000000
 10
125.775000
 20
60.350000
 30
0.000000
 10
126.200000
 20
60.250000
 30
0.000000
 10
127.300000
 20
59.750000
 30
0.000000
 10
127.000000
 20
59.975000
 30
0.000000
 10
126.025000
 20
60.675000
 30
0.000000
 10
125.075000
 20
61.675000
 30
0.000000
 10
123.725000
 20
61.800000
 30
0.000000
 10
122.850000
 20
61.900000
 30
0.000000
 10
121.500000
 20
61.300000
 30
0.000000
 10
120.900000
 20
60.625000
 30
0.000000
  0
SPLINE
  5
a40
100
AcDbEntity
  8
0
370
    20
100
AcDbSpline
210
0.000000
220
0.000000
230
1.000000
 70
     8
 71
     3
 72
    17
 73
    13
 74
     0
 42
0.0000001
 43
0.0000001
 44
0.0000000001
 40
0.000000
 40
0.000000
 40
0.000000
 40
0.000000
 40
1.125000
 40
1.125000
 40
1.125000
 40
1.950000
 40
1.950000
 40
1.950000
 40
3.360009
 40
3.360009
 40
3.360009
 40
5.035009
 40
5.035009
 40
5.035009
 40
5.035009
 10
120.975000
 20
41.050000
 30
0.000000
 10
120.975000
 20
40.675000
 30
0.000000
 10
120.775000
 20
40.200000
 30
0.000000
 10
120.975000
 20
39.925000
 30
0.000000
 10
121.150000
 20
39.650000
 30
0.000000
 10
121.550000
 20
39.750000
 30
0.000000
 10
121.800000
 20
39.925000
 30
0.000000
 10
122.175000
 20
40.175000
 30
0.000000
 10
122.950000
 20
40.675000
 30
0.000000
 10
122.650000
 20
41.050000
 30
0.000000
 10
122.250000
 20
41.600000
 30
0.000000
 10
121.600000
 20
41.325000
 30
0.000000
 10
120.975000
 20
41.050000
 30
0.000000
  0
SPLINE
  5
a43
100
AcDbEntity
  8
0
370
    20
100
AcDbSpline
210
0.000000
220
0.000000
230
1.000000
 70
     8
 71
     3
 72
    17
 73
    13
 74
     0
 42
0.0000001
 43
0.0000001
 44
0.0000000001
 40
0.000000
 40
0.000000
 40
0.000000
 40
0.000000
 40
1.200000
 40
1.200000
 40
1.200000
 40
2.375000
 40
2.375000
 40
2.375000
 40
4.037077
 40
4.037077
 40
4.037077
 40
6.362077
 40
6.362077
 40
6.362077
 40
6.362077
 10
123.050000
 20
41.050000
 30
0.000000
 10
123.050000
 20
40.650000
 30
0.000000
 10
122.775000
 20
40.150000
 30
0.000000
 10
123.050000
 20
39.850000
 30
0.000000
 10
123.325000
 20
39.575000
 30
0.000000
 10
123.875000
 20
39.675000
 30
0.000000
 10
124.225000
 20
39.850000
 30
0.000000
 10
124.725000
 20
40.100000
 30
0.000000
 10
125.775000
 20
40.650000
 30
0.000000
 10
125.375000
 20
41.050000
 30
0.000000
 10
124.825000
 20
41.625000
 30
0.000000
 10
123.925000
 20
41.325000
 30
0.000000
 10
123.050000
 20
41.050000
 30
0.000000
  0
SPLINE
  5
a46
100
AcDbEntity
  8
0
370
    20
100
AcDbSpline
210
0.000000
220
0.000000
230
1.000000
 70
     8
 71
     3
 72
    17
 73
    13
 74
     0
 42
0.0000001
 43
0.0000001
 44
0.0000000001
 40
0.000000
 40
0.000000
 40
0.000000
 40
0.000000
 40
1.050000
 40
1.050000
 40
1.050000
 40
2.075000
 40
2.075000
 40
2.075000
 40
3.559924
 40
3.559924
 40
3.559924
 40
5.634924
 40
5.634924
 40
5.634924
 40
5.634924
 10
128.025000
 20
41.100000
 30
0.000000
 10
128.025000
 20
40.775000
 30
0.000000
 10
128.275000
 20
40.300000
 30
0.000000
 10
128.025000
 20
40.050000
 30
0.000000
 10
127.800000
 20
39.800000
 30
0.000000
 10
127.300000
 20
39.900000
 30
0.000000
 10
127.000000
 20
40.050000
 30
0.000000
 10
126.550000
 20
40.275000
 30
0.000000
 10
125.600000
 20
40.775000
 30
0.000000
 10
125.950000
 20
41.100000
 30
0.000000
 10
126.450000
 20
41.625000
 30
0.000000
 10
127.250000
 20
41.375000
 30
0.000000
 10
128.025000
 20
41.100000
 30
0.000000
  0
SPLINE
  5
a49
100
AcDbEntity
  8
0
370
    20
100
AcDbSpline
210
0.000000
220
0.000000
230
1.000000
 70
     8
 71
     3
 72
    17
 73
    13
 74
     0
 42
0.0000001
 43
0.0000001
 44
0.0000000001
 40
0.000000
 40
0.000000
 40
0.000000
 40
0.000000
 40
1.000000
 40
1.000000
 40
1.000000
 40
2.025000
 40
2.025000
 40
2.025000
 40
3.475000
 40
3.475000
 40
3.475000
 40
5.550000
 40
5.550000
 40
5.550000
 40
5.550000
 10
128.650000
 20
40.875000
 30
0.000000
 10
128.650000
 20
40.550000
 30
0.000000
 10
128.400000
 20
40.125000
 30
0.000000
 10
128.650000
 20
39.875000
 30
0.000000
 10
128.875000
 20
39.650000
 30
0.000000
 10
129.350000
 20
39.750000
 30
0.000000
 10
129.675000
 20
39.875000
 30
0.000000
 10
130.125000
 20
40.075000
 30
0.000000
 10
131.075000
 20
40.550000
 30
0.000000
 10
130.725000
 20
40.875000
 30
0.000000
 10
130.200000
 20
41.375000
 30
0.000000
 10
129.425000
 20
41.100000
 30
0.000000
 10
128.650000
 20
40.875000
 30
0.000000
  0
SPLINE
  5
a4c
100
AcDbEntity
  8
0
370
    20
100
AcDbSpline
210
0.000000
220
0.000000
230
1.000000
 70
     8
 71
     3
 72
    17
 73
    13
 74
     0
 42
0.0000001
 43
0.0000001
 44
0.0000000001
 40
0.000000
 40
0.000000
 40
0.000000
 40
0.000000
 40
0.900000
 40
0.900000
 40
0.900000
 40
1.800000
 40
1.800000
 40
1.800000
 40
3.055239
 40
3.055239
 40
3.055239
 40
4.830239
 40
4.830239
 40
4.830239
 40
4.830239
 10
131.200000
 20
41.075000
 30
0.000000
 10
131.200000
 20
40.775000
 30
0.000000
 10
130.975000
 20
40.375000
 30
0.000000
 10
131.200000
 20
40.175000
 30
0.000000
 10
131.400000
 20
39.950000
 30
0.000000
 10
131.825000
 20
40.025000
 30
0.000000
 10
132.100000
 20
40.175000
 30
0.000000
 10
132.450000
 20
40.350000
 30
0.000000
 10
133.275000
 20
40.775000
 30
0.000000
 10
132.975000
 20
41.075000
 30
0.000000
 10
132.550000
 20
41.500000
 30
0.000000
 10
131.875000
 20
41.275000
 30
0.000000
 10
131.200000
 20
41.075000
 30
0.000000
  0
SPLINE
  5
a4f
100
AcDbEntity
  8
0
370
    20
100
AcDbSpline
210
0.000000
220
0.000000
230
1.000000
 70
     8
 71
     3
 72
    17
 73
    13
 74
     0
 42
0.0000001
 43
0.0000001
 44
0.0000000001
 40
0.000000
 40
0.000000
 40
0.000000
 40
0.000000
 40
1.125000
 40
1.125000
 40
1.125000
 40
2.150000
 40
2.150000
 40
2.150000
 40
3.688871
 40
3.688871
 40
3.688871
 40
5.763871
 40
5.763871
 40
5.763871
 40
5.763871
 10
133.575000
 20
40.075000
 30
0.000000
 10
133.575000
 20
40.450000
 30
0.000000
 10
133.325000
 20
40.925000
 30
0.000000
 10
133.575000
 20
41.200000
 30
0.000000
 10
133.800000
 20
41.450000
 30
0.000000
 10
134.300000
 20
41.375000
 30
0.000000
 10
134.600000
 20
41.200000
 30
0.000000
 10
135.050000
 20
40.950000
 30
0.000000
 10
136.000000
 20
40.450000
 30
0.000000
 10
135.650000
 20
40.075000
 30
0.000000
 10
135.150000
 20
39.525000
 30
0.000000
 10
134.350000
 20
39.800000
 30
0.000000
 10
133.575000
 20
40.075000
 30
0.000000
  0
SPLINE
  5
a52
100
AcDbEntity
  8
0
370
    20
100
AcDbSpline
210
0.000000
220
0.000000
230
1.000000
 70
     8
 71
     3
 72
   107
 73
   103
 74
     0
 42
0.0000001
 43
0.0000001
 44
0.0000000001
 40
0.000000
 40
0.000000
 40
0.000000
 40
0.000000
 40
2.359158
 40
2.359158
 40
2.359158
 40
3.590519
 40
3.590519
 40
3.590519
 40
5.402286
 40
5.402286
 40
5.402286
 40
6.367946
 40
6.367946
 40
6.367946
 40
7.117946
 40
7.117946
 40
7.117946
 40
12.138902
 40
12.138902
 40
12.138902
 40
13.473069
 40
13.473069
 40
13.473069
 40
14.146214
 40
14.146214
 40
14.146214
 40
14.705231
 40
14.705231
 40
14.705231
 40
15.353787
 40
15.353787
 40
15.353787
 40
15.912804
 40
15.912804
 40
15.912804
 40
16.677657
 40
16.677657
 40
16.677657
 40
17.107774
 40
17.107774
 40
17.107774
 40
18.090754
 40
18.090754
 40
18.090754
 40
19.488296
 40
19.488296
 40
19.488296
 40
21.229345
 40
21.229345
 40
21.229345
 40
23.648022
 40
23.648022
 40
23.648022
 40
27.074482
 40
27.074482
 40
27.074482
 40
28.752464
 40
28.752464
 40
28.752464
 40
29.815479
 40
29.815479
 40
29.815479
 40
31.161073
 40
31.161073
 40
31.161073
 40
31.977315
 40
31.977315
 40
31.977315
 40
33.829678
 40
33.829678
 40
33.829678
 40
34.851013
 40
34.851013
 40
34.851013
 40
36.047362
 40
36.047362
 40
36.047362
 40
37.277199
 40
37.277199
 40
37.277199
 40
37.836216
 40
37.836216
 40
37.836216
 40
38.794404
 40
38.794404
 40
38.794404
 40
39.544404
 40
39.544404
 40
39.544404
 40
40.501287
 40
40.501287
 40
40.501287
 40
41.771376
 40
41.771376
 40
41.771376
 40
43.010831
 40
43.010831
 40
43.010831
 40
43.769943
 40
43.769943
 40
43.769943
 40
44.552966
 40
44.552966
 40
44.552966
 40
44.552966
 10
166.975000
 20
73.425000
 30
0.000000
 10
166.450000
 20
73.200000
 30
0.000000
 10
165.425000
 20
72.400000
 30
0.000000
 10
165.175000
 20
71.900000
 30
0.000000
 10
164.975000
 20
71.550000
 30
0.000000
 10
165.125000
 20
71.025000
 30
0.000000
 10
165.300000
 20
70.675000
 30
0.000000
 10
165.575000
 20
70.125000
 30
0.000000
 10
166.125000
 20
69.775000
 30
0.000000
 10
166.450000
 20
69.275000
 30
0.000000
 10
166.625000
 20
69.000000
 30
0.000000
 10
166.950000
 20
68.675000
 30
0.000000
 10
166.800000
 20
68.375000
 30
0.000000
 10
166.700000
 20
68.150000
 30
0.000000
 10
166.250000
 20
68.225000
 30
0.000000
 10
166.050000
 20
68.375000
 30
0.000000
 10
164.775000
 20
69.475000
 30
0.000000
 10
163.450000
 20
70.575000
 30
0.000000
 10
162.550000
 20
71.975000
 30
0.000000
 10
162.300000
 20
72.350000
 30
0.000000
 10
162.725000
 20
72.850000
 30
0.000000
 10
162.850000
 20
73.275000
 30
0.000000
 10
162.950000
 20
73.500000
 30
0.000000
 10
163.250000
 20
73.650000
 30
0.000000
 10
163.200000
 20
73.850000
 30
0.000000
 10
163.125000
 20
74.025000
 30
0.000000
 10
162.800000
 20
73.850000
 30
0.000000
 10
162.650000
 20
73.950000
 30
0.000000
 10
162.475000
 20
74.100000
 30
0.000000
 10
162.525000
 20
74.450000
 30
0.000000
 10
162.350000
 20
74.525000
 30
0.000000
 10
162.175000
 20
74.575000
 30
0.000000
 10
162.025000
 20
74.275000
 30
0.000000
 10
161.850000
 20
74.275000
 30
0.000000
 10
161.600000
 20
74.250000
 30
0.000000
 10
161.350000
 20
74.475000
 30
0.000000
 10
161.100000
 20
74.425000
 30
0.000000
 10
160.975000
 20
74.400000
 30
0.000000
 10
160.975000
 20
74.125000
 30
0.000000
 10
160.850000
 20
74.075000
 30
0.000000
 10
160.550000
 20
73.950000
 30
0.000000
 10
159.875000
 20
74.275000
 30
0.000000
 10
159.875000
 20
73.950000
 30
0.000000
 10
159.875000
 20
73.500000
 30
0.000000
 10
160.550000
 20
73.300000
 30
0.000000
 10
160.825000
 20
72.925000
 30
0.000000
 10
161.175000
 20
72.475000
 30
0.000000
 10
161.475000
 20
71.975000
 30
0.000000
 10
161.750000
 20
71.450000
 30
0.000000
 10
162.175000
 20
70.775000
 30
0.000000
 10
162.375000
 20
69.925000
 30
0.000000
 10
162.950000
 20
69.350000
 30
0.000000
 10
163.775000
 20
68.550000
 30
0.000000
 10
165.125000
 20
68.425000
 30
0.000000
 10
165.850000
 20
67.525000
 30
0.000000
 10
166.200000
 20
67.100000
 30
0.000000
 10
166.100000
 20
66.275000
 30
0.000000
 10
165.750000
 20
65.850000
 30
0.000000
 10
165.500000
 20
65.575000
 30
0.000000
 10
165.325000
 20
66.425000
 30
0.000000
 10
165.050000
 20
66.650000
 30
0.000000
 10
164.700000
 20
66.925000
 30
0.000000
 10
164.400000
 20
67.325000
 30
0.000000
 10
163.950000
 20
67.425000
 30
0.000000
 10
163.675000
 20
67.475000
 30
0.000000
 10
163.200000
 20
67.325000
 30
0.000000
 10
163.225000
 20
67.050000
 30
0.000000
 10
163.300000
 20
66.425000
 30
0.000000
 10
163.900000
 20
66.000000
 30
0.000000
 10
164.200000
 20
65.475000
 30
0.000000
 10
164.350000
 20
65.175000
 30
0.000000
 10
164.575000
 20
64.875000
 30
0.000000
 10
164.575000
 20
64.525000
 30
0.000000
 10
164.550000
 20
64.125000
 30
0.000000
 10
164.325000
 20
63.750000
 30
0.000000
 10
164.050000
 20
63.450000
 30
0.000000
 10
163.775000
 20
63.175000
 30
0.000000
 10
163.200000
 20
63.225000
 30
0.000000
 10
162.950000
 20
62.900000
 30
0.000000
 10
162.850000
 20
62.750000
 30
0.000000
 10
163.275000
 20
62.650000
 30
0.000000
 10
163.450000
 20
62.650000
 30
0.000000
 10
163.775000
 20
62.650000
 30
0.000000
 10
164.050000
 20
62.825000
 30
0.000000
 10
164.375000
 20
62.900000
 30
0.000000
 10
164.625000
 20
62.925000
 30
0.000000
 10
164.900000
 20
62.825000
 30
0.000000
 10
165.125000
 20
62.900000
 30
0.000000
 10
165.425000
 20
63.000000
 30
0.000000
 10
165.825000
 20
63.125000
 30
0.000000
 10
165.925000
 20
63.425000
 30
0.000000
 10
166.050000
 20
63.850000
 30
0.000000
 10
165.350000
 20
64.450000
 30
0.000000
 10
165.700000
 20
64.675000
 30
0.000000
 10
166.075000
 20
64.875000
 30
0.000000
 10
166.375000
 20
64.175000
 30
0.000000
 10
166.625000
 20
63.850000
 30
0.000000
 10
166.800000
 20
63.650000
 30
0.000000
 10
166.675000
 20
63.300000
 30
0.000000
 10
166.850000
 20
63.125000
 30
0.000000
 10
167.050000
 20
62.950000
 30
0.000000
 10
167.325000
 20
62.925000
 30
0.000000
 10
167.600000
 20
62.900000
 30
0.000000
  0
SPLINE
  5
a55
100
AcDbEntity
  8
0
370
    20
100
AcDbSpline
210
0.000000
220
0.000000
230
1.000000
 70
     8
 71
     3
 72
    95
 73
    91
 74
     0
 42
0.0000001
 43
0.0000001
 44
0.0000000001
 40
0.000000
 40
0.000000
 40
0.000000
 40
0.000000
 40
3.768703
 40
3.768703
 40
3.768703
 40
4.848345
 40
4.848345
 40
4.848345
 40
6.304581
 40
6.304581
 40
6.304581
 40
7.126925
 40
7.126925
 40
7.126925
 40
7.676925
 40
7.676925
 40
7.676925
 40
11.317152
 40
11.317152
 40
11.317152
 40
12.329575
 40
12.329575
 40
12.329575
 40
14.333477
 40
14.333477
 40
14.333477
 40
16.240373
 40
16.240373
 40
16.240373
 40
17.350834
 40
17.350834
 40
17.350834
 40
18.654675
 40
18.654675
 40
18.654675
 40
20.757649
 40
20.757649
 40
20.757649
 40
22.804140
 40
22.804140
 40
22.804140
 40
25.414216
 40
25.414216
 40
25.414216
 40
26.891122
 40
26.891122
 40
26.891122
 40
27.766122
 40
27.766122
 40
27.766122
 40
28.777618
 40
28.777618
 40
28.777618
 40
29.382288
 40
29.382288
 40
29.382288
 40
30.925215
 40
30.925215
 40
30.925215
 40
31.794841
 40
31.794841
 40
31.794841
 40
32.816176
 40
32.816176
 40
32.816176
 40
33.746566
 40
33.746566
 40
33.746566
 40
34.162649
 40
34.162649
 40
34.162649
 40
34.874161
 40
34.874161
 40
34.874161
 40
35.424729
 40
35.424729
 40
35.424729
 40
36.154883
 40
36.154883
 40
36.154883
 40
37.240298
 40
37.240298
 40
37.240298
 40
38.230879
 40
38.230879
 40
38.230879
 40
38.873627
 40
38.873627
 40
38.873627
 40
39.450797
 40
39.450797
 40
39.450797
 40
39.450797
 10
166.975000
 20
73.650000
 30
0.000000
 10
167.350000
 20
73.450000
 30
0.000000
 10
169.325000
 20
71.300000
 30
0.000000
 10
169.525000
 20
70.875000
 30
0.000000
 10
169.675000
 20
70.550000
 30
0.000000
 10
169.550000
 20
70.125000
 30
0.000000
 10
169.425000
 20
69.800000
 30
0.000000
 10
169.225000
 20
69.325000
 30
0.000000
 10
168.825000
 20
69.025000
 30
0.000000
 10
168.600000
 20
68.600000
 30
0.000000
 10
168.450000
 20
68.375000
 30
0.000000
 10
168.250000
 20
68.075000
 30
0.000000
 10
168.325000
 20
67.825000
 30
0.000000
 10
168.400000
 20
67.600000
 30
0.000000
 10
168.750000
 20
67.700000
 30
0.000000
 10
168.875000
 20
67.825000
 30
0.000000
 10
169.800000
 20
68.750000
 30
0.000000
 10
170.225000
 20
69.650000
 30
0.000000
 10
170.900000
 20
70.850000
 30
0.000000
 10
171.075000
 20
71.200000
 30
0.000000
 10
170.650000
 20
71.425000
 30
0.000000
 10
170.550000
 20
71.800000
 30
0.000000
 10
170.475000
 20
71.975000
 30
0.000000
 10
169.200000
 20
73.150000
 30
0.000000
 10
169.250000
 20
73.325000
 30
0.000000
 10
169.275000
 20
73.475000
 30
0.000000
 10
170.725000
 20
72.150000
 30
0.000000
 10
170.825000
 20
72.250000
 30
0.000000
 10
170.950000
 20
72.375000
 30
0.000000
 10
170.125000
 20
73.150000
 30
0.000000
 10
170.250000
 20
73.200000
 30
0.000000
 10
170.375000
 20
73.250000
 30
0.000000
 10
171.250000
 20
72.525000
 30
0.000000
 10
171.350000
 20
72.500000
 30
0.000000
 10
171.550000
 20
72.475000
 30
0.000000
 10
172.200000
 20
70.925000
 30
0.000000
 10
172.000000
 20
70.500000
 30
0.000000
 10
171.700000
 20
69.900000
 30
0.000000
 10
171.550000
 20
69.150000
 30
0.000000
 10
171.125000
 20
68.650000
 30
0.000000
 10
170.550000
 20
67.975000
 30
0.000000
 10
169.550000
 20
67.875000
 30
0.000000
 10
169.025000
 20
67.100000
 30
0.000000
 10
168.775000
 20
66.700000
 30
0.000000
 10
168.850000
 20
65.975000
 30
0.000000
 10
169.100000
 20
65.625000
 30
0.000000
 10
169.275000
 20
65.375000
 30
0.000000
 10
169.425000
 20
66.100000
 30
0.000000
 10
169.625000
 20
66.325000
 30
0.000000
 10
169.875000
 20
66.575000
 30
0.000000
 10
170.075000
 20
66.900000
 30
0.000000
 10
170.400000
 20
66.975000
 30
0.000000
 10
170.600000
 20
67.025000
 30
0.000000
 10
170.950000
 20
66.900000
 30
0.000000
 10
170.925000
 20
66.675000
 30
0.000000
 10
170.875000
 20
66.125000
 30
0.000000
 10
170.425000
 20
65.750000
 30
0.000000
 10
170.225000
 20
65.300000
 30
0.000000
 10
170.125000
 20
65.050000
 30
0.000000
 10
169.950000
 20
64.775000
 30
0.000000
 10
169.950000
 20
64.475000
 30
0.000000
 10
169.975000
 20
64.125000
 30
0.000000
 10
170.125000
 20
63.775000
 30
0.000000
 10
170.325000
 20
63.525000
 30
0.000000
 10
170.550000
 20
63.275000
 30
0.000000
 10
170.950000
 20
63.325000
 30
0.000000
 10
171.125000
 20
63.050000
 30
0.000000
 10
171.200000
 20
62.925000
 30
0.000000
 10
170.900000
 20
62.825000
 30
0.000000
 10
170.775000
 20
62.825000
 30
0.000000
 10
170.550000
 20
62.825000
 30
0.000000
 10
170.325000
 20
63.000000
 30
0.000000
 10
170.100000
 20
63.050000
 30
0.000000
 10
169.925000
 20
63.075000
 30
0.000000
 10
169.725000
 20
63.000000
 30
0.000000
 10
169.550000
 20
63.075000
 30
0.000000
 10
169.350000
 20
63.150000
 30
0.000000
 10
169.050000
 20
63.250000
 30
0.000000
 10
168.975000
 20
63.525000
 30
0.000000
 10
168.875000
 20
63.875000
 30
0.000000
 10
169.400000
 20
64.425000
 30
0.000000
 10
169.125000
 20
64.600000
 30
0.000000
 10
168.850000
 20
64.800000
 30
0.000000
 10
168.650000
 20
64.175000
 30
0.000000
 10
168.450000
 20
63.875000
 30
0.000000
 10
168.325000
 20
63.700000
 30
0.000000
 10
168.425000
 20
63.425000
 30
0.000000
 10
168.300000
 20
63.250000
 30
0.000000
 10
168.150000
 20
63.100000
 30
0.000000
 10
167.950000
 20
63.075000
 30
0.000000
 10
167.750000
 20
63.075000
 30
0.000000
  0
CIRCLE
  5
a58
100
AcDbEntity
  8
0
370
    20
100
AcDbCircle
 10
150.000000
 20
74.000000
 40
0.550000
  0
CIRCLE
  5
a5b
100
AcDbEntity
  8
0
370
    20
100
AcDbCircle
 10
150.050000
 20
71.375000
 40
0.550000
  0
CIRCLE
  5
a5e
100
AcDbEntity
  8
0
370
    20
100
AcDbCircle
 10
150.000000
 20
69.050000
 40
0.550000
  0
CIRCLE
  5
a61
100
AcDbEntity
  8
0
370
    20
100
AcDbCircle
 10
150.150000
 20
66.850000
 40
0.550000
  0
SPLINE
  5
a64
100
AcDbEntity
  8
0
370
    20
100
AcDbSpline
210
0.000000
220
0.000000
230
1.000000
 70
     8
 71
     3
 72
    35
 73
    31
 74
     0
 42
0.0000001
 43
0.0000001
 44
0.0000000001
 40
0.000000
 40
0.000000
 40
0.000000
 40
0.000000
 40
0.127475
 40
0.127475
 40
0.127475
 40
2.189028
 40
2.189028
 40
2.189028
 40
4.939596
 40
4.939596
 40
4.939596
 40
6.990206
 40
6.990206
 40
6.990206
 40
11.015439
 40
11.015439
 40
11.015439
 40
12.355448
 40
12.355448
 40
12.355448
 40
15.696575
 40
15.696575
 40
15.696575
 40
17.791956
 40
17.791956
 40
17.791956
 40
20.920954
 40
20.920954
 40
20.920954
 40
24.186302
 40
24.186302
 40
24.186302
 40
24.186302
 10
122.525000
 20
67.800000
 30
0.000000
 10
122.575000
 20
67.800000
 30
0.000000
 10
122.600000
 20
67.800000
 30
0.000000
 10
122.650000
 20
67.825000
 30
0.000000
 10
123.300000
 20
67.975000
 30
0.000000
 10
123.975000
 20
68.325000
 30
0.000000
 10
124.650000
 20
68.325000
 30
0.000000
 10
125.575000
 20
68.325000
 30
0.000000
 10
126.450000
 20
67.925000
 30
0.000000
 10
127.350000
 20
67.800000
 30
0.000000
 10
128.025000
 20
67.725000
 30
0.000000
 10
128.725000
 20
67.700000
 30
0.000000
 10
129.400000
 20
67.750000
 30
0.000000
 10
130.725000
 20
67.825000
 30
0.000000
 10
132.100000
 20
68.450000
 30
0.000000
 10
133.400000
 20
68.200000
 30
0.000000
 10
133.850000
 20
68.125000
 30
0.000000
 10
134.075000
 20
67.150000
 30
0.000000
 10
133.725000
 20
66.900000
 30
0.000000
 10
132.800000
 20
66.250000
 30
0.000000
 10
131.575000
 20
66.150000
 30
0.000000
 10
130.475000
 20
66.125000
 30
0.000000
 10
129.775000
 20
66.100000
 30
0.000000
 10
129.175000
 20
66.725000
 30
0.000000
 10
128.475000
 20
66.750000
 30
0.000000
 10
127.425000
 20
66.775000
 30
0.000000
 10
126.400000
 20
66.150000
 30
0.000000
 10
125.375000
 20
66.325000
 30
0.000000
 10
124.300000
 20
66.500000
 30
0.000000
 10
123.375000
 20
67.100000
 30
0.000000
 10
122.425000
 20
67.725000
 30
0.000000
  0
SPLINE
  5
a67
100
AcDbEntity
  8
0
370
    20
100
AcDbSpline
210
0.000000
220
0.000000
230
1.000000
 70
     8
 71
     3
 72
    65
 73
    61
 74
     0
 42
0.0000001
 43
0.0000001
 44
0.0000000001
 40
0.000000
 40
0.000000
 40
0.000000
 40
0.000000
 40
1.544345
 40
1.544345
 40
1.544345
 40
2.464263
 40
2.464263
 40
2.464263
 40
3.564547
 40
3.564547
 40
3.564547
 40
5.079679
 40
5.079679
 40
5.079679
 40
6.526443
 40
6.526443
 40
6.526443
 40
7.288020
 40
7.288020
 40
7.288020
 40
7.948512
 40
7.948512
 40
7.948512
 40
8.424170
 40
8.424170
 40
8.424170
 40
8.654658
 40
8.654658
 40
8.654658
 40
8.929658
 40
8.929658
 40
8.929658
 40
9.254658
 40
9.254658
 40
9.254658
 40
10.131086
 40
10.131086
 40
10.131086
 40
11.017793
 40
11.017793
 40
11.017793
 40
12.131627
 40
12.131627
 40
12.131627
 40
13.285966
 40
13.285966
 40
13.285966
 40
14.272437
 40
14.272437
 40
14.272437
 40
15.872437
 40
15.872437
 40
15.872437
 40
17.716346
 40
17.716346
 40
17.716346
 40
19.616511
 40
19.616511
 40
19.616511
 40
20.637845
 40
20.637845
 40
20.637845
 40
20.637845
 10
133.100000
 20
62.675000
 30
0.000000
 10
132.625000
 20
62.900000
 30
0.000000
 10
132.150000
 20
63.125000
 30
0.000000
 10
131.750000
 20
63.425000
 30
0.000000
 10
131.500000
 20
63.600000
 30
0.000000
 10
131.275000
 20
63.850000
 30
0.000000
 10
131.125000
 20
64.100000
 30
0.000000
 10
130.925000
 20
64.400000
 30
0.000000
 10
130.950000
 20
64.875000
 30
0.000000
 10
130.725000
 20
65.125000
 30
0.000000
 10
130.400000
 20
65.550000
 30
0.000000
 10
129.950000
 20
65.825000
 30
0.000000
 10
129.525000
 20
66.050000
 30
0.000000
 10
129.075000
 20
66.225000
 30
0.000000
 10
128.575000
 20
66.325000
 30
0.000000
 10
128.100000
 20
66.300000
 30
0.000000
 10
127.850000
 20
66.300000
 30
0.000000
 10
127.575000
 20
66.150000
 30
0.000000
 10
127.400000
 20
66.000000
 30
0.000000
 10
127.225000
 20
65.875000
 30
0.000000
 10
127.125000
 20
65.625000
 30
0.000000
 10
127.075000
 20
65.425000
 30
0.000000
 10
127.000000
 20
65.275000
 30
0.000000
 10
127.000000
 20
65.100000
 30
0.000000
 10
127.050000
 20
64.950000
 30
0.000000
 10
127.050000
 20
64.875000
 30
0.000000
 10
127.125000
 20
64.850000
 30
0.000000
 10
127.225000
 20
64.800000
 30
0.000000
 10
127.300000
 20
64.800000
 30
0.000000
 10
127.400000
 20
64.800000
 30
0.000000
 10
127.500000
 20
64.800000
 30
0.000000
 10
127.625000
 20
64.800000
 30
0.000000
 10
127.925000
 20
64.800000
 30
0.000000
 10
127.825000
 20
64.800000
 30
0.000000
 10
127.550000
 20
64.775000
 30
0.000000
 10
127.225000
 20
64.925000
 30
0.000000
 10
126.950000
 20
64.750000
 30
0.000000
 10
126.700000
 20
64.575000
 30
0.000000
 10
126.650000
 20
64.200000
 30
0.000000
 10
126.625000
 20
63.925000
 30
0.000000
 10
126.575000
 20
63.550000
 30
0.000000
 10
126.575000
 20
63.100000
 30
0.000000
 10
126.800000
 20
62.825000
 30
0.000000
 10
127.050000
 20
62.550000
 30
0.000000
 10
127.525000
 20
62.500000
 30
0.000000
 10
127.900000
 20
62.475000
 30
0.000000
 10
128.250000
 20
62.400000
 30
0.000000
 10
128.550000
 20
62.575000
 30
0.000000
 10
128.875000
 20
62.625000
 30
0.000000
 10
129.400000
 20
62.650000
 30
0.000000
 10
129.950000
 20
62.650000
 30
0.000000
 10
130.475000
 20
62.625000
 30
0.000000
 10
131.075000
 20
62.550000
 30
0.000000
 10
131.650000
 20
62.300000
 30
0.000000
 10
132.275000
 20
62.225000
 30
0.000000
 10
132.900000
 20
62.175000
 30
0.000000
 10
133.600000
 20
62.025000
 30
0.000000
 10
134.175000
 20
62.250000
 30
0.000000
 10
134.475000
 20
62.400000
 30
0.000000
 10
133.850000
 20
62.475000
 30
0.000000
 10
133.225000
 20
62.625000
 30
0.000000
  0
SPLINE
  5
a6a
100
AcDbEntity
  8
0
370
    20
100
AcDbSpline
210
0.000000
220
0.000000
230
1.000000
 70
     8
 71
     3
 72
    65
 73
    61
 74
     0
 42
0.0000001
 43
0.0000001
 44
0.0000000001
 40
0.000000
 40
0.000000
 40
0.000000
 40
0.000000
 40
1.450216
 40
1.450216
 40
1.450216
 40
2.261465
 40
2.261465
 40
2.261465
 40
3.316512
 40
3.316512
 40
3.316512
 40
4.731167
 40
4.731167
 40
4.731167
 40
6.019820
 40
6.019820
 40
6.019820
 40
6.741363
 40
6.741363
 40
6.741363
 40
7.372335
 40
7.372335
 40
7.372335
 40
7.803902
 40
7.803902
 40
7.803902
 40
7.999158
 40
7.999158
 40
7.999158
 40
8.275292
 40
8.275292
 40
8.275292
 40
8.584525
 40
8.584525
 40
8.584525
 40
9.390751
 40
9.390751
 40
9.390751
 40
10.274634
 40
10.274634
 40
10.274634
 40
11.277443
 40
11.277443
 40
11.277443
 40
12.339575
 40
12.339575
 40
12.339575
 40
13.239922
 40
13.239922
 40
13.239922
 40
14.700444
 40
14.700444
 40
14.700444
 40
16.392337
 40
16.392337
 40
16.392337
 40
18.153728
 40
18.153728
 40
18.153728
 40
19.104057
 40
19.104057
 40
19.104057
 40
19.104057
 10
120.725000
 20
62.150000
 30
0.000000
 10
121.150000
 20
62.400000
 30
0.000000
 10
121.525000
 20
62.675000
 30
0.000000
 10
121.900000
 20
63.000000
 30
0.000000
 10
122.100000
 20
63.200000
 30
0.000000
 10
122.250000
 20
63.425000
 30
0.000000
 10
122.350000
 20
63.675000
 30
0.000000
 10
122.525000
 20
64.025000
 30
0.000000
 10
122.425000
 20
64.425000
 30
0.000000
 10
122.600000
 20
64.700000
 30
0.000000
 10
122.850000
 20
65.100000
 30
0.000000
 10
123.200000
 20
65.450000
 30
0.000000
 10
123.625000
 20
65.675000
 30
0.000000
 10
123.975000
 20
65.900000
 30
0.000000
 10
124.425000
 20
66.050000
 30
0.000000
 10
124.850000
 20
66.075000
 30
0.000000
 10
125.100000
 20
66.100000
 30
0.000000
 10
125.325000
 20
66.000000
 30
0.000000
 10
125.550000
 20
65.900000
 30
0.000000
 10
125.700000
 20
65.775000
 30
0.000000
 10
125.825000
 20
65.550000
 30
0.000000
 10
125.900000
 20
65.375000
 30
0.000000
 10
125.975000
 20
65.250000
 30
0.000000
 10
126.000000
 20
65.100000
 30
0.000000
 10
125.975000
 20
64.950000
 30
0.000000
 10
125.975000
 20
64.875000
 30
0.000000
 10
125.900000
 20
64.850000
 30
0.000000
 10
125.850000
 20
64.800000
 30
0.000000
 10
125.775000
 20
64.775000
 30
0.000000
 10
125.675000
 20
64.800000
 30
0.000000
 10
125.575000
 20
64.775000
 30
0.000000
 10
125.475000
 20
64.750000
 30
0.000000
 10
125.175000
 20
64.700000
 30
0.000000
 10
125.275000
 20
64.700000
 30
0.000000
 10
125.550000
 20
64.725000
 30
0.000000
 10
125.850000
 20
64.900000
 30
0.000000
 10
126.075000
 20
64.800000
 30
0.000000
 10
126.325000
 20
64.625000
 30
0.000000
 10
126.425000
 20
64.325000
 30
0.000000
 10
126.500000
 20
64.025000
 30
0.000000
 10
126.550000
 20
63.700000
 30
0.000000
 10
126.625000
 20
63.300000
 30
0.000000
 10
126.425000
 20
63.025000
 30
0.000000
 10
126.225000
 20
62.725000
 30
0.000000
 10
125.825000
 20
62.625000
 30
0.000000
 10
125.475000
 20
62.550000
 30
0.000000
 10
125.175000
 20
62.475000
 30
0.000000
 10
124.875000
 20
62.575000
 30
0.000000
 10
124.575000
 20
62.575000
 30
0.000000
 10
124.100000
 20
62.550000
 30
0.000000
 10
123.625000
 20
62.500000
 30
0.000000
 10
123.125000
 20
62.400000
 30
0.000000
 10
122.575000
 20
62.250000
 30
0.000000
 10
122.100000
 20
61.975000
 30
0.000000
 10
121.525000
 20
61.850000
 30
0.000000
 10
120.975000
 20
61.700000
 30
0.000000
 10
120.350000
 20
61.500000
 30
0.000000
 10
119.775000
 20
61.650000
 30
0.000000
 10
119.500000
 20
61.725000
 30
0.000000
 10
120.050000
 20
61.900000
 30
0.000000
 10
120.625000
 20
62.075000
 30
0.000000
  0
SPLINE
  5
a6d
100
AcDbEntity
  8
0
370
    20
100
AcDbSpline
210
0.000000
220
0.000000
230
1.000000
 70
     8
 71
     3
 72
    65
 73
    61
 74
     0
 42
0.0000001
 43
0.0000001
 44
0.0000000001
 40
0.000000
 40
0.000000
 40
0.000000
 40
0.000000
 40
1.097725
 40
1.097725
 40
1.097725
 40
1.716696
 40
1.716696
 40
1.716696
 40
2.389841
 40
2.389841
 40
2.389841
 40
3.444889
 40
3.444889
 40
3.444889
 40
4.499936
 40
4.499936
 40
4.499936
 40
5.112819
 40
5.112819
 40
5.112819
 40
5.538553
 40
5.538553
 40
5.538553
 40
5.847786
 40
5.847786
 40
5.847786
 40
5.972786
 40
5.972786
 40
5.972786
 40
6.222786
 40
6.222786
 40
6.222786
 40
6.477737
 40
6.477737
 40
6.477737
 40
7.154587
 40
7.154587
 40
7.154587
 40
7.764914
 40
7.764914
 40
7.764914
 40
8.391911
 40
8.391911
 40
8.391911
 40
9.255407
 40
9.255407
 40
9.255407
 40
10.005824
 40
10.005824
 40
10.005824
 40
11.212316
 40
11.212316
 40
11.212316
 40
12.600886
 40
12.600886
 40
12.600886
 40
14.033759
 40
14.033759
 40
14.033759
 40
14.772423
 40
14.772423
 40
14.772423
 40
14.772423
 10
136.700000
 20
63.175000
 30
0.000000
 10
136.375000
 20
63.350000
 30
0.000000
 10
136.025000
 20
63.525000
 30
0.000000
 10
135.750000
 20
63.725000
 30
0.000000
 10
135.575000
 20
63.850000
 30
0.000000
 10
135.425000
 20
64.025000
 30
0.000000
 10
135.325000
 20
64.175000
 30
0.000000
 10
135.225000
 20
64.375000
 30
0.000000
 10
135.300000
 20
64.625000
 30
0.000000
 10
135.150000
 20
64.825000
 30
0.000000
 10
134.925000
 20
65.075000
 30
0.000000
 10
134.625000
 20
65.300000
 30
0.000000
 10
134.300000
 20
65.450000
 30
0.000000
 10
133.975000
 20
65.575000
 30
0.000000
 10
133.625000
 20
65.675000
 30
0.000000
 10
133.275000
 20
65.700000
 30
0.000000
 10
133.050000
 20
65.725000
 30
0.000000
 10
132.850000
 20
65.650000
 30
0.000000
 10
132.675000
 20
65.575000
 30
0.000000
 10
132.550000
 20
65.500000
 30
0.000000
 10
132.450000
 20
65.375000
 30
0.000000
 10
132.400000
 20
65.250000
 30
0.000000
 10
132.350000
 20
65.150000
 30
0.000000
 10
132.300000
 20
65.050000
 30
0.000000
 10
132.325000
 20
64.950000
 30
0.000000
 10
132.325000
 20
64.925000
 30
0.000000
 10
132.400000
 20
64.900000
 30
0.000000
 10
132.425000
 20
64.875000
 30
0.000000
 10
132.525000
 20
64.875000
 30
0.000000
 10
132.600000
 20
64.875000
 30
0.000000
 10
132.675000
 20
64.875000
 30
0.000000
 10
132.750000
 20
64.850000
 30
0.000000
 10
133.000000
 20
64.825000
 30
0.000000
 10
132.925000
 20
64.825000
 30
0.000000
 10
132.675000
 20
64.825000
 30
0.000000
 10
132.450000
 20
64.950000
 30
0.000000
 10
132.250000
 20
64.875000
 30
0.000000
 10
132.050000
 20
64.775000
 30
0.000000
 10
131.950000
 20
64.575000
 30
0.000000
 10
131.900000
 20
64.375000
 30
0.000000
 10
131.825000
 20
64.175000
 30
0.000000
 10
131.775000
 20
63.925000
 30
0.000000
 10
131.950000
 20
63.750000
 30
0.000000
 10
132.100000
 20
63.550000
 30
0.000000
 10
132.450000
 20
63.500000
 30
0.000000
 10
132.750000
 20
63.425000
 30
0.000000
 10
133.000000
 20
63.400000
 30
0.000000
 10
133.250000
 20
63.450000
 30
0.000000
 10
133.500000
 20
63.450000
 30
0.000000
 10
133.900000
 20
63.425000
 30
0.000000
 10
134.300000
 20
63.425000
 30
0.000000
 10
134.700000
 20
63.325000
 30
0.000000
 10
135.175000
 20
63.250000
 30
0.000000
 10
135.600000
 20
63.075000
 30
0.000000
 10
136.050000
 20
63.000000
 30
0.000000
 10
136.525000
 20
62.900000
 30
0.000000
 10
137.025000
 20
62.750000
 30
0.000000
 10
137.475000
 20
62.850000
 30
0.000000
 10
137.725000
 20
62.900000
 30
0.000000
 10
137.275000
 20
63.025000
 30
0.000000
 10
136.800000
 20
63.150000
 30
0.000000
  0
LWPOLYLINE
  5
a70
100
AcDbEntity
  8
0
100
AcDbPolyline
 90
     8
 70
     1
 43
0.200000
 10
122.400000
 20
101.900000
 10
122.400000
 20
101.900000
 10
122.550000
 20
101.750000
 10
122.550000
 20
99.375000
 10
122.400000
 20
99.225000
 10
122.400000
 20
99.225000
 10
122.250000
 20
99.375000
 10
122.250000
 20
101.750000
  0
LWPOLYLINE
  5
a83
100
AcDbEntity
  8
0
100
AcDbPolyline
 90
     8
 70
     1
 43
0.200000
 10
124.400000
 20
102.075000
 10
124.400000
 20
102.075000
 10
124.500000
 20
101.975000
 10
124.500000
 20
99.400000
 10
124.400000
 20
99.300000
 10
124.400000
 20
99.300000
 10
124.300000
 20
99.400000
 10
124.300000
 20
101.975000
  0
LWPOLYLINE
  5
a96
100
AcDbEntity
  8
0
100
AcDbPolyline
 90
     8
 70
     1
 43
0.200000
 10
126.475000
 20
102.225000
 10
126.500000
 20
102.225000
 10
126.600000
 20
102.125000
 10
126.600000
 20
99.550000
 10
126.500000
 20
99.450000
 10
126.475000
 20
99.450000
 10
126.375000
 20
99.550000
 10
126.375000
 20
102.125000
  0
LWPOLYLINE
  5
aa9
100
AcDbEntity
  8
0
100
AcDbPolyline
 90
     8
 70
     1
 43
0.200000
 10
134.675000
 20
102.050000
 10
134.700000
 20
102.050000
 10
134.800000
 20
101.950000
 10
134.800000
 20
99.375000
 10
134.700000
 20
99.275000
 10
134.675000
 20
99.275000
 10
134.575000
 20
99.375000
 10
134.575000
 20
101.950000
  0
LWPOLYLINE
  5
abc
100
AcDbEntity
  8
0
100
AcDbPolyline
 90
     8
 70
     1
 43
0.200000
 10
137.150000
 20
101.300000
 10
137.175000
 20
101.300000
 10
137.275000
 20
101.200000
 10
137.275000
 20
99.425000
 10
137.175000
 20
99.325000
 10
137.150000
 20
99.325000
 10
137.050000
 20
99.425000
 10
137.050000
 20
101.200000
  0
LWPOLYLINE
  5
acf
100
AcDbEntity
  8
0
100
AcDbPolyline
 90
     2
 70
     0
 43
0.200000
 10
121.250000
 20
93.075000
 10
121.250000
 20
91.500000
  0
LWPOLYLINE
  5
ad6
100
AcDbEntity
  8
0
100
AcDbPolyline
 90
     2
 70
     0
 43
0.200000
 10
123.625000
 20
93.025000
 10
123.625000
 20
91.450000
  0
LWPOLYLINE
  5
add
100
AcDbEntity
  8
0
100
AcDbPolyline
 90
     2
 70
     0
 43
0.200000
 10
125.850000
 20
92.950000
 10
125.850000
 20
91.375000
  0
LWPOLYLINE
  5
ae4
100
AcDbEntity
  8
0
100
AcDbPolyline
 90
     2
 70
     0
 43
0.200000
 10
128.075000
 20
92.900000
 10
128.075000
 20
91.325000
  0
LWPOLYLINE
  5
aeb
100
AcDbEntity
  8
0
100
AcDbPolyline
 90
     2
 70
     0
 43
0.200000
 10
133.375000
 20
93.075000
 10
133.375000
 20
91.475000
  0
LWPOLYLINE
  5
af2
100
AcDbEntity
  8
0
100
AcDbPolyline
 90
     2
 70
     0
 43
0.200000
 10
135.275000
 20
93.025000
 10
135.275000
 20
91.450000
  0
LWPOLYLINE
  5
af9
100
AcDbEntity
  8
0
100
AcDbPolyline
 90
     2
 70
     0
 43
0.200000
 10
137.225000
 20
92.975000
 10
137.225000
 20
91.375000
  0
LWPOLYLINE
  5
b00
100
AcDbEntity
  8
0
100
AcDbPolyline
 90
     2
 70
     0
 43
0.200000
 10
121.450000
 20
36.425000
 10
121.450000
 20
34.025000
  0
LWPOLYLINE
  5
b07
100
AcDbEntity
  8
0
100
AcDbPolyline
 90
     2
 70
     0
 43
0.200000
 10
123.975000
 20
36.425000
 10
123.975000
 20
34.025000
  0
LWPOLYLINE
  5
b0e
100
AcDbEntity
  8
0
100
AcDbPolyline
 90
     2
 70
     0
 43
0.200000
 10
126.350000
 20
36.550000
 10
126.350000
 20
34.125000
  0
LWPOLYLINE
  5
b15
100
AcDbEntity
  8
0
100
AcDbPolyline
 90
     2
 70
     0
 43
0.200000
 10
128.850000
 20
36.575000
 10
128.850000
 20
34.175000
  0
LWPOLYLINE
  5
b1c
100
AcDbEntity
  8
0
100
AcDbPolyline
 90
     2
 70
     0
 43
0.200000
 10
131.575000
 20
36.550000
 10
131.575000
 20
34.125000
  0
LWPOLYLINE
  5
b23
100
AcDbEntity
  8
0
100
AcDbPolyline
 90
     2
 70
     0
 43
0.200000
 10
134.125000
 20
36.550000
 10
134.125000
 20
34.125000
  0
LWPOLYLINE
  5
b2a
100
AcDbEntity
  8
0
100
AcDbPolyline
 90
     2
 70
     0
 43
0.200000
 10
136.275000
 20
36.500000
 10
136.275000
 20
34.100000
  0
LWPOLYLINE
  5
b31
100
AcDbEntity
  8
0
100
AcDbPolyline
 90
     9
 70
     0
 43
0.200000
 10
85.250000
 20
37.350000
 10
86.800000
 20
40.525000
 10
85.150000
 20
44.325000
 10
84.675000
 20
46.450000
 10
84.725000
 20
49.350000
 10
85.800000
 20
52.200000
 10
91.000000
 20
57.275000
 10
95.800000
 20
61.975000
 10
95.675000
 20
61.850000
  0
LWPOLYLINE
  5
b46
100
AcDbEntity
  8
0
100
AcDbPolyline
 90
    13
 70
     0
 43
0.200000
 10
95.675000
 20
61.850000
 10
96.200000
 20
62.600000
 10
97.325000
 20
65.550000
 10
94.600000
 20
68.225000
 10
93.550000
 20
63.925000
 10
90.575000
 20
61.200000
 10
87.450000
 20
58.225000
 10
84.975000
 20
56.100000
 10
83.475000
 20
54.450000
 10
81.950000
 20
51.800000
 10
81.350000
 20
46.700000
 10
82.250000
 20
43.375000
 10
85.250000
 20
37.350000
  0
LWPOLYLINE
  5
b63
100
AcDbEntity
  8
0
100
AcDbPolyline
 90
     3
 70
     0
 43
0.200000
 10
96.200000
 20
61.200000
 10
97.925000
 20
65.675000
 10
95.725000
 20
68.325000
  0
SPLINE
  5
b6c
100
AcDbEntity
  8
0
370
    20
100
AcDbSpline
210
0.000000
220
0.000000
230
1.000000
 70
     8
 71
     3
 72
    11
 73
     7
 74
     0
 42
0.0000001
 43
0.0000001
 44
0.0000000001
 40
0.000000
 40
0.000000
 40
0.000000
 40
0.000000
 40
5.800970
 40
5.800970
 40
5.800970
 40
9.019374
 40
9.019374
 40
9.019374
 40
9.019374
 10
101.450000
 20
68.425000
 30
0.000000
 10
100.000000
 20
67.100000
 30
0.000000
 10
98.550000
 20
65.825000
 30
0.000000
 10
97.475000
 20
64.200000
 30
0.000000
 10
96.875000
 20
63.325000
 30
0.000000
 10
96.700000
 20
62.225000
 30
0.000000
 10
96.525000
 20
61.125000
 30
0.000000
  0
SPLINE
  5
b6f
100
AcDbEntity
  8
0
370
    20
100
AcDbSpline
210
0.000000
220
0.000000
230
1.000000
 70
     8
 71
     3
 72
    11
 73
     7
 74
     0
 42
0.0000001
 43
0.0000001
 44
0.0000000001
 40
0.000000
 40
0.000000
 40
0.000000
 40
0.000000
 40
4.643342
 40
4.643342
 40
4.643342
 40
8.485379
 40
8.485379
 40
8.485379
 40
8.485379
 10
103.025000
 20
66.075000
 30
0.000000
 10
101.600000
 20
65.425000
 30
0.000000
 10
100.175000
 20
64.775000
 30
0.000000
 10
99.050000
 20
63.675000
 30
0.000000
 10
98.125000
 20
62.800000
 30
0.000000
 10
97.625000
 20
61.575000
 30
0.000000
 10
97.125000
 20
60.350000
 30
0.000000
  0
SPLINE
  5
b72
100
AcDbEntity
  8
0
370
    20
100
AcDbSpline
210
0.000000
220
0.000000
230
1.000000
 70
     8
 71
     3
 72
    11
 73
     7
 74
     0
 42
0.0000001
 43
0.0000001
 44
0.0000000001
 40
0.000000
 40
0.000000
 40
0.000000
 40
0.000000
 40
4.529418
 40
4.529418
 40
4.529418
 40
8.465231
 40
8.465231
 40
8.465231
 40
8.465231
 10
103.200000
 20
64.450000
 30
0.000000
 10
101.650000
 20
64.050000
 30
0.000000
 10
100.125000
 20
63.650000
 30
0.000000
 10
99.100000
 20
62.525000
 30
0.000000
 10
98.250000
 20
61.550000
 30
0.000000
 10
98.150000
 20
60.125000
 30
0.000000
 10
98.075000
 20
58.725000
 30
0.000000
  0
SPLINE
  5
b75
100
AcDbEntity
  8
0
370
    20
100
AcDbSpline
210
0.000000
220
0.000000
230
1.000000
 70
     8
 71
     3
 72
    77
 73
    73
 74
     0
 42
0.0000001
 43
0.0000001
 44
0.0000000001
 40
0.000000
 40
0.000000
 40
0.000000
 40
0.000000
 40
0.735272
 40
0.735272
 40
0.735272
 40
1.920599
 40
1.920599
 40
1.920599
 40
2.829582
 40
2.829582
 40
2.829582
 40
3.907195
 40
3.907195
 40
3.907195
 40
4.233155
 40
4.233155
 40
4.233155
 40
5.190365
 40
5.190365
 40
5.190365
 40
5.822820
 40
5.822820
 40
5.822820
 40
7.209363
 40
7.209363
 40
7.209363
 40
7.464314
 40
7.464314
 40
7.464314
 40
8.245339
 40
8.245339
 40
8.245339
 40
9.048847
 40
9.048847
 40
9.048847
 40
9.362096
 40
9.362096
 40
9.362096
 40
10.452107
 40
10.452107
 40
10.452107
 40
11.071078
 40
11.071078
 40
11.071078
 40
11.507684
 40
11.507684
 40
11.507684
 40
12.652783
 40
12.652783
 40
12.652783
 40
13.293583
 40
13.293583
 40
13.293583
 40
14.168940
 40
14.168940
 40
14.168940
 40
14.582764
 40
14.582764
 40
14.582764
 40
15.716342
 40
15.716342
 40
15.716342
 40
16.890278
 40
16.890278
 40
16.890278
 40
17.449295
 40
17.449295
 40
17.449295
 40
18.169104
 40
18.169104
 40
18.169104
 40
18.941276
 40
18.941276
 40
18.941276
 40
18.941276
 10
106.075000
 20
110.575000
 30
0.000000
 10
105.925000
 20
110.800000
 30
0.000000
 10
105.825000
 20
111.025000
 30
0.000000
 10
105.850000
 20
111.275000
 30
0.000000
 10
105.925000
 20
111.675000
 30
0.000000
 10
106.025000
 20
112.225000
 30
0.000000
 10
106.400000
 20
112.325000
 30
0.000000
 10
106.700000
 20
112.425000
 30
0.000000
 10
106.800000
 20
111.850000
 30
0.000000
 10
106.875000
 20
111.550000
 30
0.000000
 10
106.925000
 20
111.175000
 30
0.000000
 10
106.800000
 20
110.825000
 30
0.000000
 10
106.800000
 20
110.475000
 30
0.000000
 10
106.775000
 20
110.350000
 30
0.000000
 10
106.750000
 20
110.725000
 30
0.000000
 10
106.825000
 20
110.800000
 30
0.000000
 10
107.025000
 20
111.050000
 30
0.000000
 10
107.275000
 20
111.300000
 30
0.000000
 10
107.550000
 20
111.425000
 30
0.000000
 10
107.750000
 20
111.475000
 30
0.000000
 10
108.150000
 20
111.425000
 30
0.000000
 10
108.150000
 20
111.225000
 30
0.000000
 10
108.125000
 20
110.775000
 30
0.000000
 10
107.825000
 20
110.350000
 30
0.000000
 10
107.550000
 20
109.975000
 30
0.000000
 10
107.525000
 20
109.900000
 30
0.000000
 10
107.275000
 20
110.000000
 30
0.000000
 10
107.300000
 20
109.925000
 30
0.000000
 10
107.425000
 20
109.725000
 30
0.000000
 10
107.775000
 20
109.675000
 30
0.000000
 10
107.900000
 20
109.425000
 30
0.000000
 10
108.000000
 20
109.175000
 30
0.000000
 10
108.000000
 20
108.900000
 30
0.000000
 10
107.975000
 20
108.625000
 30
0.000000
 10
107.950000
 20
108.525000
 30
0.000000
 10
107.775000
 20
108.425000
 30
0.000000
 10
107.700000
 20
108.475000
 30
0.000000
 10
107.400000
 20
108.725000
 30
0.000000
 10
107.375000
 20
109.225000
 30
0.000000
 10
107.050000
 20
109.350000
 30
0.000000
 10
106.875000
 20
109.425000
 30
0.000000
 10
106.750000
 20
109.050000
 30
0.000000
 10
106.625000
 20
108.900000
 30
0.000000
 10
106.525000
 20
108.750000
 30
0.000000
 10
106.575000
 20
108.450000
 30
0.000000
 10
106.450000
 20
108.500000
 30
0.000000
 10
106.125000
 20
108.700000
 30
0.000000
 10
106.125000
 20
109.300000
 30
0.000000
 10
105.775000
 20
109.425000
 30
0.000000
 10
105.600000
 20
109.500000
 30
0.000000
 10
105.725000
 20
108.925000
 30
0.000000
 10
105.550000
 20
108.825000
 30
0.000000
 10
105.300000
 20
108.700000
 30
0.000000
 10
104.950000
 20
108.750000
 30
0.000000
 10
104.675000
 20
108.850000
 30
0.000000
 10
104.550000
 20
108.900000
 30
0.000000
 10
104.475000
 20
109.100000
 30
0.000000
 10
104.500000
 20
109.225000
 30
0.000000
 10
104.675000
 20
109.575000
 30
0.000000
 10
105.200000
 20
109.700000
 30
0.000000
 10
105.250000
 20
110.075000
 30
0.000000
 10
105.300000
 20
110.450000
 30
0.000000
 10
104.825000
 20
110.725000
 30
0.000000
 10
104.725000
 20
111.125000
 30
0.000000
 10
104.725000
 20
111.300000
 30
0.000000
 10
104.775000
 20
111.575000
 30
0.000000
 10
104.975000
 20
111.625000
 30
0.000000
 10
105.200000
 20
111.700000
 30
0.000000
 10
105.475000
 20
111.550000
 30
0.000000
 10
105.650000
 20
111.375000
 30
0.000000
 10
105.850000
 20
111.200000
 30
0.000000
 10
105.925000
 20
110.950000
 30
0.000000
 10
106.025000
 20
110.700000
 30
0.000000
  0
ELLIPSE
  5
b78
100
AcDbEntity
  8
0
370
    20
100
AcDbEllipse
 10
106.375000
 20
110.075000
 30
0.000000
 11
0.129707
 21
0.534487
 31
0.000000
210
0.000000
220
0.000000
230
1.000000
 40
0.863636
 41
0.000000
 42
6.283185
  0
SPLINE
  5
b7b
100
AcDbEntity
  8
0
370
    20
100
AcDbSpline
210
0.000000
220
0.000000
230
1.000000
 70
     8
 71
     3
 72
    35
 73
    31
 74
     0
 42
0.0000001
 43
0.0000001
 44
0.0000000001
 40
0.000000
 40
0.000000
 40
0.000000
 40
0.000000
 40
2.421905
 40
2.421905
 40
2.421905
 40
8.800042
 40
8.800042
 40
8.800042
 40
13.600107
 40
13.600107
 40
13.600107
 40
16.160502
 40
16.160502
 40
16.160502
 40
17.849067
 40
17.849067
 40
17.849067
 40
20.288457
 40
20.288457
 40
20.288457
 40
31.138918
 40
31.138918
 40
31.138918
 40
33.711490
 40
33.711490
 40
33.711490
 40
34.481636
 40
34.481636
 40
34.481636
 40
34.531636
 40
34.531636
 40
34.531636
 40
34.531636
 10
106.275000
 20
117.875000
 30
0.000000
 10
107.075000
 20
117.425000
 30
0.000000
 10
107.875000
 20
116.975000
 30
0.000000
 10
108.000000
 20
116.175000
 30
0.000000
 10
108.400000
 20
114.100000
 30
0.000000
 10
107.825000
 20
111.925000
 30
0.000000
 10
107.800000
 20
109.800000
 30
0.000000
 10
107.775000
 20
108.200000
 30
0.000000
 10
108.050000
 20
106.575000
 30
0.000000
 10
107.825000
 20
105.000000
 30
0.000000
 10
107.675000
 20
104.150000
 30
0.000000
 10
107.250000
 20
103.350000
 30
0.000000
 10
106.700000
 20
102.700000
 30
0.000000
 10
106.325000
 20
102.275000
 30
0.000000
 10
105.650000
 20
101.650000
 30
0.000000
 10
105.175000
 20
101.975000
 30
0.000000
 10
104.475000
 20
102.400000
 30
0.000000
 10
104.225000
 20
103.400000
 30
0.000000
 10
104.175000
 20
104.200000
 30
0.000000
 10
103.950000
 20
107.800000
 30
0.000000
 10
103.850000
 20
111.450000
 30
0.000000
 10
104.275000
 20
115.050000
 30
0.000000
 10
104.400000
 20
115.900000
 30
0.000000
 10
105.175000
 20
116.500000
 30
0.000000
 10
105.725000
 20
117.175000
 30
0.000000
 10
105.900000
 20
117.350000
 30
0.000000
 10
106.125000
 20
117.450000
 30
0.000000
 10
106.350000
 20
117.625000
 30
0.000000
 10
106.375000
 20
117.625000
 30
0.000000
 10
106.400000
 20
117.625000
 30
0.000000
 10
106.400000
 20
117.625000
 30
0.000000
  0
LWPOLYLINE
  5
b7e
100
AcDbEntity
  8
0
100
AcDbPolyline
 90
     7
 70
     0
 43
0.200000
 10
104.975000
 20
111.625000
 10
105.175000
 20
114.625000
 10
106.425000
 20
116.250000
 10
106.475000
 20
114.200000
 10
107.025000
 20
115.875000
 10
107.650000
 20
114.850000
 10
107.475000
 20
111.650000
  0
LWPOLYLINE
  5
b8f
100
AcDbEntity
  8
0
100
AcDbPolyline
 90
     7
 70
     0
 43
0.200000
 10
107.225000
 20
108.475000
 10
107.100000
 20
104.825000
 10
106.250000
 20
103.650000
 10
105.975000
 20
105.450000
 10
105.350000
 20
104.250000
 10
104.775000
 20
105.250000
 10
104.775000
 20
108.525000
  0
SPLINE
  5
ba0
100
AcDbEntity
  8
0
370
    20
100
AcDbSpline
210
0.000000
220
0.000000
230
1.000000
 70
     8
 71
     3
 72
    32
 73
    28
 74
     0
 42
0.0000001
 43
0.0000001
 44
0.0000000001
 40
0.000000
 40
0.000000
 40
0.000000
 40
0.000000
 40
6.500000
 40
6.500000
 40
6.500000
 40
14.435128
 40
14.435128
 40
14.435128
 40
26.465506
 40
26.465506
 40
26.465506
 40
36.061762
 40
36.061762
 40
36.061762
 40
38.094309
 40
38.094309
 40
38.094309
 40
42.105076
 40
42.105076
 40
42.105076
 40
59.499274
 40
59.499274
 40
59.499274
 40
74.573300
 40
74.573300
 40
74.573300
 40
78.299642
 40
78.299642
 40
78.299642
 40
78.299642
 10
104.250000
 20
103.000000
 30
0.000000
 10
104.325000
 20
100.825000
 30
0.000000
 10
104.400000
 20
98.650000
 30
0.000000
 10
104.250000
 20
96.500000
 30
0.000000
 10
104.075000
 20
93.850000
 30
0.000000
 10
103.800000
 20
91.200000
 30
0.000000
 10
103.275000
 20
88.625000
 30
0.000000
 10
102.525000
 20
84.675000
 30
0.000000
 10
101.675000
 20
80.750000
 30
0.000000
 10
100.475000
 20
76.925000
 30
0.000000
 10
99.525000
 20
73.850000
 30
0.000000
 10
97.575000
 20
71.150000
 30
0.000000
 10
96.825000
 20
68.050000
 30
0.000000
 10
96.675000
 20
67.400000
 30
0.000000
 10
97.225000
 20
66.175000
 30
0.000000
 10
97.900000
 20
66.325000
 30
0.000000
 10
99.200000
 20
66.575000
 30
0.000000
 10
100.450000
 20
67.650000
 30
0.000000
 10
100.975000
 20
68.900000
 30
0.000000
 10
103.200000
 20
74.250000
 30
0.000000
 10
104.725000
 20
79.900000
 30
0.000000
 10
105.925000
 20
85.575000
 30
0.000000
 10
106.975000
 20
90.500000
 30
0.000000
 10
107.225000
 20
95.550000
 30
0.000000
 10
107.650000
 20
100.550000
 30
0.000000
 10
107.775000
 20
101.800000
 30
0.000000
 10
107.650000
 20
103.025000
 30
0.000000
 10
107.550000
 20
104.275000
 30
0.000000
  0
SPLINE
  5
ba3
100
AcDbEntity
  8
0
370
    20
100
AcDbSpline
210
0.000000
220
0.000000
230
1.000000
 70
     8
 71
     3
 72
    47
 73
    43
 74
     0
 42
0.0000001
 43
0.0000001
 44
0.0000000001
 40
0.000000
 40
0.000000
 40
0.000000
 40
0.000000
 40
8.630252
 40
8.630252
 40
8.630252
 40
15.232572
 40
15.232572
 40
15.232572
 40
21.197521
 40
21.197521
 40
21.197521
 40
24.384409
 40
24.384409
 40
24.384409
 40
26.866847
 40
26.866847
 40
26.866847
 40
33.316653
 40
33.316653
 40
33.316653
 40
37.170304
 40
37.170304
 40
37.170304
 40
39.252670
 40
39.252670
 40
39.252670
 40
43.169381
 40
43.169381
 40
43.169381
 40
46.459233
 40
46.459233
 40
46.459233
 40
48.815740
 40
48.815740
 40
48.815740
 40
52.702416
 40
52.702416
 40
52.702416
 40
59.278509
 40
59.278509
 40
59.278509
 40
71.575714
 40
71.575714
 40
71.575714
 40
71.575714
 10
104.575000
 20
116.025000
 30
0.000000
 10
104.650000
 20
118.925000
 30
0.000000
 10
104.725000
 20
121.825000
 30
0.000000
 10
105.550000
 20
124.600000
 30
0.000000
 10
106.175000
 20
126.700000
 30
0.000000
 10
107.400000
 20
128.650000
 30
0.000000
 10
108.750000
 20
130.375000
 30
0.000000
 10
109.975000
 20
131.950000
 30
0.000000
 10
111.575000
 20
133.200000
 30
0.000000
 10
113.175000
 20
134.375000
 30
0.000000
 10
114.025000
 20
135.025000
 30
0.000000
 10
115.050000
 20
135.425000
 30
0.000000
 10
116.050000
 20
135.750000
 30
0.000000
 10
116.825000
 20
136.000000
 30
0.000000
 10
117.675000
 20
136.175000
 30
0.000000
 10
118.500000
 20
136.150000
 30
0.000000
 10
120.625000
 20
136.050000
 30
0.000000
 10
122.775000
 20
135.800000
 30
0.000000
 10
124.900000
 20
135.350000
 30
0.000000
 10
126.150000
 20
135.075000
 30
0.000000
 10
127.600000
 20
134.875000
 30
0.000000
 10
128.500000
 20
133.975000
 30
0.000000
 10
129.000000
 20
133.500000
 30
0.000000
 10
129.025000
 20
131.975000
 30
0.000000
 10
128.325000
 20
131.900000
 30
0.000000
 10
127.050000
 20
131.750000
 30
0.000000
 10
125.975000
 20
133.100000
 30
0.000000
 10
124.750000
 20
133.500000
 30
0.000000
 10
123.700000
 20
133.850000
 30
0.000000
 10
122.600000
 20
134.050000
 30
0.000000
 10
121.525000
 20
134.150000
 30
0.000000
 10
120.750000
 20
134.200000
 30
0.000000
 10
119.950000
 20
134.100000
 30
0.000000
 10
119.175000
 20
133.975000
 30
0.000000
 10
117.900000
 20
133.750000
 30
0.000000
 10
116.475000
 20
133.775000
 30
0.000000
 10
115.400000
 20
133.050000
 30
0.000000
 10
113.575000
 20
131.850000
 30
0.000000
 10
111.700000
 20
130.375000
 30
0.000000
 10
110.750000
 20
128.400000
 30
0.000000
 10
108.950000
 20
124.700000
 30
0.000000
 10
108.175000
 20
120.625000
 30
0.000000
 10
107.375000
 20
116.575000
 30
0.000000
  0
CIRCLE
  5
ba6
100
AcDbEntity
  8
0
370
    20
100
AcDbCircle
 10
113.275000
 20
122.800000
 40
0.950000
  0
LWPOLYLINE
  5
ba9
100
AcDbEntity
  8
0
  6
DOT
 62
     7
100
AcDbPolyline
 90
     4
 70
     1
 43
0.200000
 10
115.175000
 20
24.625000
 10
116.950000
 20
24.625000
 10
116.950000
 20
22.150000
 10
115.175000
 20
22.150000
  0
LWPOLYLINE
  5
bb4
100
AcDbEntity
  8
0
  6
DOT
 62
     7
100
AcDbPolyline
 90
     4
 70
     1
 43
0.200000
 10
137.375000
 20
24.725000
 10
139.150000
 20
24.725000
 10
139.150000
 20
22.250000
 10
137.375000
 20
22.250000
  0
ELLIPSE
  5
bbf
100
AcDbEntity
  8
0
370
    20
100
AcDbEllipse
 10
42.775000
 20
53.050000
 30
0.000000
 11
17.125000
 21
-0.00000000000000
 31
0.000000
210
0.000000
220
0.000000
230
1.000000
 40
0.966423
 41
0.000000
 42
6.283185
  0
CIRCLE
  5
bc2
100
AcDbEntity
  8
0
370
    20
100
AcDbCircle
 10
42.775000
 20
53.050000
 40
12.000000
  0
CIRCLE
  5
bc5
100
AcDbEntity
  8
0
370
    20
100
AcDbCircle
 10
52.500000
 20
63.875000
 40
1.150000
  0
CIRCLE
  5
bc8
100
AcDbEntity
  8
0
370
    20
100
AcDbCircle
 10
52.500000
 20
43.150000
 40
1.150000
  0
CIRCLE
  5
bcb
100
AcDbEntity
  8
0
370
    20
100
AcDbCircle
 10
32.500000
 20
63.875000
 40
1.150000
  0
CIRCLE
  5
bce
100
AcDbEntity
  8
0
370
    20
100
AcDbCircle
 10
32.500000
 20
43.150000
 40
1.150000
  0
LINE
  5
bd1
100
AcDbEntity
  8
0
370
    20
100
AcDbLine
 10
32.500000
 20
63.875000
 11
52.500000
 21
63.875000
  0
LWPOLYLINE
  5
bd4
100
AcDbEntity
  8
0
100
AcDbPolyline
 90
     3
 70
     0
 43
0.200000
 10
35.200000
 20
65.025000
 10
32.500000
 20
63.875000
 10
35.200000
 20
62.750000
  0
LWPOLYLINE
  5
bdd
100
AcDbEntity
  8
0
100
AcDbPolyline
 90
     3
 70
     0
 43
0.200000
 10
49.675000
 20
62.750000
 10
52.500000
 20
63.875000
 10
49.675000
 20
65.025000
  0
MTEXT
  5
be6
100
AcDbEntity
  8
0
100
AcDbMText
 10
41.650000
 20
67.775000
 40
2.425000
 41
7.275000
 71
     1
 72
     5
  1
\fＭＳ 明朝|b1|i0|c128|p17;\T1.0200;９５
 44
0.797938
 73
     1
  7
BIGFONT
  0
MTEXT
  5
be9
100
AcDbEntity
  8
0
100
AcDbMText
 10
55.050000
 20
68.050000
 40
2.425000
 41
14.475000
 71
     1
 72
     5
  1
\fＭＳ 明朝|b1|i0|c128|p17;\T1.0200;Φ１０．５
 44
0.797938
 73
     1
  7
BIGFONT
  0
LINE
  5
bec
100
AcDbEntity
  8
0
370
    20
100
AcDbLine
 10
143.250000
 20
26.275000
 11
158.725000
 21
26.275000
  0
LWPOLYLINE
  5
bef
100
AcDbEntity
  8
0
100
AcDbPolyline
 90
     3
 70
     0
 43
0.200000
 10
145.975000
 20
27.425000
 10
143.250000
 20
26.275000
 10
145.975000
 20
25.150000
  0
LINE
  5
bf8
100
AcDbEntity
  8
0
370
    20
100
AcDbLine
 10
160.275000
 20
77.350000
 11
160.275000
 21
92.825000
  0
LWPOLYLINE
  5
bfb
100
AcDbEntity
  8
0
100
AcDbPolyline
 90
     3
 70
     0
 43
0.200000
 10
159.125000
 20
80.150000
 10
160.275000
 20
77.350000
 10
161.400000
 20
80.150000
  0
LINE
  5
c04
100
AcDbEntity
  8
0
370
    20
100
AcDbLine
 10
140.150000
 20
86.625000
 11
157.175000
 21
103.650000
  0
LWPOLYLINE
  5
c07
100
AcDbEntity
  8
0
100
AcDbPolyline
 90
     3
 70
     0
 43
0.200000
 10
141.275000
 20
89.400000
 10
140.150000
 20
86.625000
 10
142.900000
 20
87.775000
  0
LINE
  5
c10
100
AcDbEntity
  8
0
370
    20
100
AcDbLine
 10
138.600000
 20
103.650000
 11
154.075000
 21
119.125000
  0
LWPOLYLINE
  5
c13
100
AcDbEntity
  8
0
100
AcDbPolyline
 90
     3
 70
     0
 43
0.200000
 10
139.725000
 20
106.425000
 10
138.600000
 20
103.650000
 10
141.350000
 20
104.800000
  0
LINE
  5
c1c
100
AcDbEntity
  8
0
370
    20
100
AcDbLine
 10
132.425000
 20
120.675000
 11
150.975000
 21
126.850000
  0
LWPOLYLINE
  5
c1f
100
AcDbEntity
  8
0
100
AcDbPolyline
 90
     3
 70
     0
 43
0.200000
 10
134.650000
 20
122.650000
 10
132.425000
 20
120.675000
 10
135.375000
 20
120.475000
  0
LINE
  5
c28
100
AcDbEntity
  8
0
370
    20
100
AcDbLine
 10
185.025000
 20
120.675000
 11
169.550000
 21
126.850000
  0
LWPOLYLINE
  5
c2b
100
AcDbEntity
  8
0
100
AcDbPolyline
 90
     3
 70
     0
 43
0.200000
 10
182.025000
 20
120.650000
 10
185.025000
 20
120.675000
 10
182.850000
 20
122.775000
  0
LINE
  5
c34
100
AcDbEntity
  8
0
370
    20
100
AcDbLine
 10
192.725000
 20
52.575000
 11
198.950000
 21
71.150000
  0
LWPOLYLINE
  5
c37
100
AcDbEntity
  8
0
100
AcDbPolyline
 90
     3
 70
     0
 43
0.200000
 10
192.500000
 20
55.575000
 10
192.725000
 20
52.575000
 10
194.675000
 20
54.850000
  0
LINE
  5
c40
100
AcDbEntity
  8
0
370
    20
100
AcDbLine
 10
195.850000
 20
39.450000
 11
206.700000
 21
52.575000
  0
LWPOLYLINE
  5
c43
100
AcDbEntity
  8
0
100
AcDbPolyline
 90
     3
 70
     0
 43
0.200000
 10
196.725000
 20
42.300000
 10
195.850000
 20
39.450000
 10
198.450000
 20
40.875000
  0
MTEXT
  5
c4c
100
AcDbEntity
  8
0
100
AcDbMText
 10
155.625000
 20
95.925000
 40
2.456250
 41
9.825000
 71
     1
 72
     5
  1
\fＭＳ 明朝|b1|i0|c128|p17;\T1.0200;水口
 44
0.964233
 73
     1
  7
BIGFONT
  0
MTEXT
  5
c4f
100
AcDbEntity
  8
0
100
AcDbMText
 10
150.525000
 20
29.300000
 40
2.456250
 41
22.925000
 71
     1
 72
     5
  1
\fＭＳ 明朝|b1|i0|c128|p17;\T1.0200;降水プラグ
 44
0.964233
 73
     1
  7
BIGFONT
  0
MTEXT
  5
c52
100
AcDbEntity
  8
0
100
AcDbMText
 10
158.700000
 20
105.175000
 40
2.456250
 41
16.350000
 71
     1
 72
     5
  1
\fＭＳ 明朝|b1|i0|c128|p17;\T1.0200;本体
 44
0.964233
 73
     1
  7
BIGFONT
  0
MTEXT
  5
c55
100
AcDbEntity
  8
0
100
AcDbMText
 10
154.075000
 20
120.650000
 40
2.456250
 41
16.350000
 71
     1
 72
     5
  1
\fＭＳ 明朝|b1|i0|c128|p17;\T1.0200;上蓋
 44
0.964233
 73
     1
  7
BIGFONT
  0
MTEXT
  5
c58
100
AcDbEntity
  8
0
100
AcDbMText
 10
154.075000
 20
128.400000
 40
2.456250
 41
14.737500
 71
     1
 72
     5
  1
\fＭＳ 明朝|b1|i0|c128|p17;\T1.0200;ロッド
 44
0.964233
 73
     1
  7
BIGFONT
  0
LINE
  5
c5b
100
AcDbEntity
  8
0
370
    20
100
AcDbLine
 10
101.475000
 20
92.825000
 11
78.250000
 21
123.775000
  0
LWPOLYLINE
  5
c5e
100
AcDbEntity
  8
0
100
AcDbPolyline
 90
     3
 70
     0
 43
0.200000
 10
98.850000
 20
94.375000
 10
101.475000
 20
92.825000
 10
100.700000
 20
95.775000
  0
LINE
  5
c67
100
AcDbEntity
  8
0
370
    20
100
AcDbLine
 10
138.600000
 20
30.925000
 11
150.975000
 21
41.750000
  0
LWPOLYLINE
  5
c6a
100
AcDbEntity
  8
0
100
AcDbPolyline
 90
     3
 70
     0
 43
0.200000
 10
139.925000
 20
33.625000
 10
138.600000
 20
30.925000
 10
141.425000
 20
31.900000
  0
MTEXT
  5
c73
100
AcDbEntity
  8
0
100
AcDbMText
 10
152.525000
 20
43.275000
 40
2.456250
 41
16.350000
 71
     1
 72
     5
  1
\fＭＳ 明朝|b1|i0|c128|p17;\T1.0200;高台
 44
0.964233
 73
     1
  7
BIGFONT
  0
MTEXT
  5
c76
100
AcDbEntity
  8
0
100
AcDbMText
 10
67.425000
 20
126.850000
 40
2.456250
 41
19.625000
 71
     1
 72
     5
  1
\fＭＳ 明朝|b1|i0|c128|p17;\T1.0200;ハンドル
 44
0.964233
 73
     1
  7
BIGFONT
  0
MTEXT
  5
c79
100
AcDbEntity
  8
0
100
AcDbMText
 10
200.500000
 20
71.150000
 40
2.456250
 41
26.150000
 71
     1
 72
     5
  1
\fＭＳ 明朝|b1|i0|c128|p17;\T1.0200;ピストン\PΦ７４㎜
 44
0.964233
 73
     1
  7
BIGFONT
  0
MTEXT
  5
c7c
100
AcDbEntity
  8
0
100
AcDbMText
 10
205.150000
 20
57.225000
 40
2.456250
 41
4.912500
 71
     1
 72
     5
  1
\fＭＳ 明朝|b1|i0|c128|p17;\T1.0200;弁
 44
0.964233
 73
     1
  7
BIGFONT
  0
MTEXT
  5
c7f
100
AcDbEntity
  8
0
100
AcDbMText
 10
226.650000
 20
145.775000
 40
2.456250
 41
32.700000
 71
     1
 72
     5
  1
\fＭＳ 明朝|b1|i0|c128|p17;\T1.0200;仕様：\Pハンドル・本体\P鋳鉄\P\Pロッド棒\Pステンレス\P\Pピストン\Pステンレス・ゴム\P\P弁\Pゴム\P\P吸い上げ　７ｍまで\Pフート弁使用が前提\P\P\P
 44
0.964233
 73
     1
  7
BIGFONT
  0
LWPOLYLINE
  5
c82
100
AcDbEntity
  8
B
100
AcDbPolyline
 90
     3
 70
     0
 43
0.200000
 10
22.550000
 20
108.300000
 10
22.550000
 20
141.225000
 10
173.525000
 20
141.225000
  0
LINE
  5
c8b
100
AcDbEntity
  8
B
370
    20
100
AcDbLine
 10
173.525000
 20
143.175000
 11
173.525000
 21
117.875000
  0
MTEXT
  5
c8e
100
AcDbEntity
  8
B
100
AcDbMText
 10
91.750000
 20
145.450000
 40
4.225000
 41
12.675000
 71
     1
 72
     5
  1
\fTimes New Roman|b0|i0|c0|p18;\T0.9100;850
 44
0.798817
 73
     1
  7
BIGFONT
  0
MTEXT
  5
c91
100
AcDbEntity
  8
B
100
AcDbMText
 10
188.000000
 20
150.000000
 40
3.168750
 41
25.350000
 71
     1
 72
     5
  1
\fＭＳ 明朝|b0|i0|c128|p17;\T1.0200;単位\fTimes New Roman|b0|i0|c0|p18;mm
 44
0.966489
 73
     1
  7
BIGFONT
  0
LWPOLYLINE
  5
c94
100
AcDbEntity
  8
B
100
AcDbPolyline
 90
     2
 70
     0
 43
0.200000
 10
11.150000
 20
22.250000
 10
212.000000
 20
22.250000
  0
LINE
  5
c9b
100
AcDbEntity
  8
B
370
    20
100
AcDbLine
 10
86.025000
 20
36.375000
 11
86.025000
 21
22.225000
  0
LWPOLYLINE
  5
c9e
100
AcDbEntity
  8
B
100
AcDbPolyline
 90
     3
 70
     0
 43
0.200000
 10
84.875000
 20
25.000000
 10
86.025000
 20
22.225000
 10
87.150000
 20
25.000000
  0
LWPOLYLINE
  5
ca7
100
AcDbEntity
  8
B
100
AcDbPolyline
 90
     3
 70
     0
 43
0.200000
 10
87.150000
 20
33.625000
 10
86.025000
 20
36.375000
 10
84.875000
 20
33.625000
  0
MTEXT
  5
cb0
100
AcDbEntity
  8
B
100
AcDbMText
 10
80.000000
 20
34.000000
 40
4.225000
 41
8.450000
 71
     1
 72
     5
  1
\fTimes New Roman|b0|i0|c0|p18;\T0.9100;60
 44
0.798817
 73
     1
  7
BIGFONT
  0
LINE
  5
cb3
100
AcDbEntity
  8
B
370
    20
100
AcDbLine
 10
142.675000
 20
60.550000
 11
173.525000
 21
60.550000
  0
LWPOLYLINE
  5
cb6
100
AcDbEntity
  8
B
100
AcDbPolyline
 90
     3
 70
     0
 43
0.200000
 10
170.750000
 20
59.425000
 10
173.525000
 20
60.550000
 10
170.750000
 20
61.700000
  0
LWPOLYLINE
  5
cbf
100
AcDbEntity
  8
B
100
AcDbPolyline
 90
     3
 70
     0
 43
0.200000
 10
145.425000
 20
61.700000
 10
142.675000
 20
60.550000
 10
145.425000
 20
59.425000
  0
LINE
  5
cc8
100
AcDbEntity
  8
B
370
    20
100
AcDbLine
 10
174.675000
 20
24.625000
 11
174.675000
 21
60.550000
  0
LWPOLYLINE
  5
ccb
100
AcDbEntity
  8
B
100
AcDbPolyline
 90
     3
 70
     0
 43
0.200000
 10
173.525000
 20
27.425000
 10
174.675000
 20
24.625000
 10
175.800000
 20
27.425000
  0
LWPOLYLINE
  5
cd4
100
AcDbEntity
  8
B
100
AcDbPolyline
 90
     3
 70
     0
 43
0.200000
 10
175.800000
 20
57.825000
 10
174.675000
 20
60.550000
 10
173.525000
 20
57.825000
  0
MTEXT
  5
cdd
100
AcDbEntity
  8
B
100
AcDbMText
 10
152.000000
 20
60.000000
 40
3.168750
 41
16.900000
 71
     1
 72
     5
  1
\fTimes New Roman|b0|i0|c0|p18;\T1.0200;200\fＭＳ 明朝|b0|i0|c128|p17;	
 44
0.966489
 73
     1
  7
BIGFONT
  0
MTEXT
  5
ce0
100
AcDbEntity
  8
B
100
AcDbMText
 10
168.375000
 20
42.000000
 40
4.225000
 41
12.675000
 71
     1
 72
     5
  1
\fTimes New Roman|b0|i0|c0|p18;\T0.9100;290
 44
0.798817
 73
     1
  7
BIGFONT
  0
MTEXT
  5
ce3
100
AcDbEntity
  8
B
100
AcDbMText
 10
33.925000
 20
34.100000
 40
3.168750
 41
21.125000
 71
     1
 72
     5
  1
\fＭＳ 明朝|b0|i0|c128|p17;\T1.0200;高台部
 44
0.966489
 73
     1
  7
BIGFONT
  0
LWPOLYLINE
  5
ce6
100
AcDbEntity
  8
B
100
AcDbPolyline
 90
     4
 70
     1
 43
0.200000
 10
4.000000
 20
164.000000
 10
270.000000
 20
164.000000
 10
270.000000
 20
8.000000
 10
4.000000
 20
8.000000
  0
LINE
  5
cf1
100
AcDbEntity
  8
B
370
    20
100
AcDbLine
 10
19.125000
 20
139.450000
 11
19.125000
 21
22.150000
  0
LWPOLYLINE
  5
cf4
100
AcDbEntity
  8
B
100
AcDbPolyline
 90
     3
 70
     0
 43
0.200000
 10
20.250000
 20
136.725000
 10
19.125000
 20
139.450000
 10
17.975000
 20
136.725000
  0
LWPOLYLINE
  5
cfd
100
AcDbEntity
  8
B
100
AcDbPolyline
 90
     3
 70
     0
 43
0.200000
 10
17.975000
 20
24.950000
 10
19.125000
 20
22.150000
 10
20.250000
 20
24.950000
  0
LINE
  5
d06
100
AcDbEntity
  8
B
370
    20
100
AcDbLine
 10
137.575000
 20
139.450000
 11
9.275000
 21
139.450000
  0
MTEXT
  5
d09
100
AcDbEntity
  8
B
100
AcDbMText
 10
11.150000
 20
75.775000
 40
4.225000
 41
12.675000
 71
     1
 72
     5
  1
\fTimes New Roman|b0|i0|c0|p18;\T0.9100;650
 44
0.798817
 73
     1
  7
BIGFONT
  0
LINE
  5
d0c
100
AcDbEntity
  8
B
370
    20
100
AcDbLine
 10
22.800000
 20
109.325000
 11
22.800000
 21
22.225000
  0
LWPOLYLINE
  5
d0f
100
AcDbEntity
  8
B
100
AcDbPolyline
 90
     3
 70
     0
 43
0.200000
 10
21.650000
 20
25.000000
 10
22.800000
 20
22.225000
 10
23.925000
 20
25.000000
  0
LWPOLYLINE
  5
d18
100
AcDbEntity
  8
B
100
AcDbPolyline
 90
     3
 70
     0
 43
0.200000
 10
23.925000
 20
106.575000
 10
22.800000
 20
109.325000
 10
21.650000
 20
106.575000
  0
MTEXT
  5
d21
100
AcDbEntity
  8
B
100
AcDbMText
 10
24.000000
 20
72.000000
 40
4.225000
 41
12.675000
 71
     1
 72
     5
  1
\fTimes New Roman|b0|i0|c0|p18;\T0.9100;445
 44
0.798817
 73
     1
  7
BIGFONT
  0
ENDSEC
  0
SECTION
  2
OBJECTS
  0
DICTIONARY
  5
d2c
100
AcDbDictionary
281
     1
  3
ACAD_COLOR
350
d2d
  3
ACAD_GROUP
350
d2e
  3
ACAD_LAYOUT
350
d2f
  3
ACAD_MATERIAL
350
d30
  3
ACAD_MLINESTYLE
350
d31
  3
CONTENTDICTIONARY
350
d37
  0
DICTIONARY
  5
d2d
102
{ACAD_REACTORS
330
d2c
102
}
330
d2c
100
AcDbDictionary
281
     1
  0
DICTIONARY
  5
d2e
102
{ACAD_REACTORS
330
d2c
102
}
330
d2c
100
AcDbDictionary
281
     1
  3
Layout1
350
d38
  3
Layout2
350
d39
  3
Model
350
d7c
  0
DICTIONARY
  5
d2f
102
{ACAD_REACTORS
330
d2c
102
}
330
d2c
100
AcDbDictionary
281
     1
  0
DICTIONARY
  5
d30
102
{ACAD_REACTORS
330
d2c
102
}
330
d2c
100
AcDbDictionary
281
     1
  0
DICTIONARY
  5
d31
102
{ACAD_REACTORS
330
d2c
102
}
330
d2c
100
AcDbDictionary
281
     1
  3
Standard
350
d3a
  0
DICTIONARY
  5
d32
102
{ACAD_REACTORS
330
d2c
102
}
330
d2c
100
AcDbDictionary
281
     1
  0
ACDBDICTIONARYWDFLT
  5
d33
102
{ACAD_REACTORS
330
d2c
102
}
330
d2c
100
AcDbDictionary
281
     1
  3
Normal
350
d7d
100
AcDbDictionaryWithDefault
340
d7d
  0
DICTIONARY
  5
d34
102
{ACAD_REACTORS
330
d2c
102
}
330
d2c
100
AcDbDictionary
281
     1
  3
Standard
350
d7e
  0
DICTIONARY
  5
d35
102
{ACAD_REACTORS
330
d2c
102
}
330
d2c
100
AcDbDictionary
281
     1
  3
CEPSNTYPE
350
d3c
  3
FINGERPRINTGUID
350
d3d
  3
HYPERLINKBASE
350
d3e
  3
INSUNITS
350
d3f
  3
LAYOUTDICT
350
d40
  3
LWETCUNION
350
d41
  3
PLOTSETDICT
350
d42
  3
PLOTSTYLNAMDICT
350
d43
  3
PSVPSCALE
350
d44
  3
PUCSBASE
350
d45
  3
PUCSORGBACK
350
d46
  3
PUCSORGBOTTOM
350
d47
  3
PUCSORGFRONT
350
d48
  3
PUCSORGLEFT
350
d49
  3
PUCSORGRIGHT
350
d4a
  3
PUCSORGTOP
350
d4b
  3
PUCSORTHOREF
350
d4c
  3
PUCSORTHOVIEW
350
d4d
  3
STYLESHEET
350
d4e
  3
TSTACKALIGN
350
d4f
  3
TSTACKSIZE
350
d50
  3
UCSBASE
350
d51
  3
UCSORGBACK
350
d52
  3
UCSORGBOTTOM
350
d53
  3
UCSORGFRONT
350
d54
  3
UCSORGLEFT
350
d55
  3
UCSORGRIGHT
350
d56
  3
UCSORGTOP
350
d57
  3
UCSORTHOREF
350
d58
  3
UCSORTHOVIEW
350
d59
  3
VERSIONGUID
350
d5a
  0
DICTIONARY
  5
d36
102
{ACAD_REACTORS
330
d2c
102
}
330
d2c
100
AcDbDictionary
281
     1
  3
CTABLESTYLE
350
d5b
  3
DIMASSOC
350
d5c
  3
HIDETEXT
350
d5d
  3
PROJECTNAME
350
d5e
  0
LAYOUT
  5
d37
102
{ACAD_XDICTIONARY
360
1042
102
}
102
{ACAD_REACTORS
330
d2d
102
}
330
d2d
100
AcDbPlotSettings
  1

  2

  4

  6

 40
0.000000
 41
0.000000
 42
0.000000
 43
0.000000
 44
0.000000
 45
0.000000
 46
0.000000
 47
0.000000
 48
0.000000
 49
0.000000
140
0.000000
141
0.000000
142
1.000000
143
1.000000
 70
   688
 72
     0
 73
     0
 74
     5
  7

 75
    16
147
1.000000
148
0.000000
149
0.000000
100
AcDbLayout
  1
Layout1
 70
     1
 71
     1
 10
0.000000
 20
0.000000
 11
277.000000
 21
170.000000
 12
0.000000
 22
0.000000
 32
0.000000
 14
100000000000000000000.000000
 24
100000000000000000000.000000
 34
100000000000000000000.000000
 15
-100000000000000000000.000000
 25
-100000000000000000000.000000
 35
-100000000000000000000.000000
146
0.000000
 13
0.000000
 23
0.000000
 33
0.000000
 16
1.000000
 26
0.000000
 36
0.000000
 17
0.000000
 27
1.000000
 37
0.000000
 76
     0
330
d31
  0
LAYOUT
  5
d38
102
{ACAD_XDICTIONARY
360
1044
102
}
102
{ACAD_REACTORS
330
d2d
102
}
330
d2d
100
AcDbPlotSettings
  1

  2

  4

  6

 40
0.000000
 41
0.000000
 42
0.000000
 43
0.000000
 44
0.000000
 45
0.000000
 46
0.000000
 47
0.000000
 48
0.000000
 49
0.000000
140
0.000000
141
0.000000
142
1.000000
143
1.000000
 70
   688
 72
     0
 73
     0
 74
     5
  7

 75
    16
147
1.000000
148
0.000000
149
0.000000
100
AcDbLayout
  1
Layout2
 70
     1
 71
     2
 10
0.000000
 20
0.000000
 11
277.000000
 21
170.000000
 12
0.000000
 22
0.000000
 32
0.000000
 14
0.000000
 24
0.000000
 34
0.000000
 15
0.000000
 25
0.000000
 35
0.000000
146
0.000000
 13
0.000000
 23
0.000000
 33
0.000000
 16
1.000000
 26
0.000000
 36
0.000000
 17
0.000000
 27
1.000000
 37
0.000000
 76
     0
330
d38
  0
LAYOUT
  5
d39
102
{ACAD_XDICTIONARY
360
1046
102
}
102
{ACAD_REACTORS
330
d2d
102
}
330
d2d
100
AcDbPlotSettings
  1

  2

  4

  6

 40
0.000000
 41
0.000000
 42
0.000000
 43
0.000000
 44
0.000000
 45
0.000000
 46
0.000000
 47
0.000000
 48
0.000000
 49
0.000000
140
0.000000
141
0.000000
142
1.000000
143
1.000000
 70
  1712
 72
     0
 73
     0
 74
     0
  7

 75
    16
147
1.000000
148
0.000000
149
0.000000
100
AcDbLayout
  1
Model
 70
     1
 71
     0
 10
0.000000
 20
0.000000
 11
277.000000
 21
170.000000
 12
0.000000
 22
0.000000
 32
0.000000
 14
0.000000
 24
0.000000
 34
0.000000
 15
0.000000
 25
0.000000
 35
0.000000
146
0.000000
 13
0.000000
 23
0.000000
 33
0.000000
 16
1.000000
 26
0.000000
 36
0.000000
 17
0.000000
 27
1.000000
 37
0.000000
 76
     0
330
d39
  0
MLINESTYLE
  5
d3a
102
{ACAD_REACTORS
330
d39
102
}
330
d39
100
AcDbMlineStyle
  2
STANDARD
 70
     0
  3
 
 62
   256
 51
90.000000
 52
90.000000
 71
     2
 49
0.500000
 62
   256
  6
BYLAYER
 49
-0.500000
 62
   256
  6
BYLAYER
  0
ACDBPLACEHOLDER
  5
d3b
102
{ACAD_REACTORS
330
d3a
102
}
330
d3a
  0
DICTIONARY
  5
1042
100
AcDbDictionary
280
     1
281
     1
  3
ACAD_XREC_ROUNDTRIP
360
1043
  0
DICTIONARY
  5
1044
100
AcDbDictionary
280
     1
281
     1
  3
ACAD_XREC_ROUNDTRIP
360
1045
  0
DICTIONARY
  5
1046
100
AcDbDictionary
280
     1
281
     1
  3
ACAD_XREC_ROUNDTRIP
360
1047
  0
XRECORD
  5
1043
102
{ACAD_REACTORS
330
1042
102
}
330
1042
100
AcDbXrecord
280
     1
102
SHADEPLOT
 70
     0
102
SHADEPLOTRESLEVEL
 70
     2
102
SHADEPLOTCUSTOMDPI
 70
   300
  0
XRECORD
  5
1045
102
{ACAD_REACTORS
330
1044
102
}
330
1044
100
AcDbXrecord
280
     1
102
SHADEPLOT
 70
     0
102
SHADEPLOTRESLEVEL
 70
     2
102
SHADEPLOTCUSTOMDPI
 70
   300
  0
XRECORD
  5
1047
102
{ACAD_REACTORS
330
1046
102
}
330
1046
100
AcDbXrecord
280
     1
102
SHADEPLOT
 70
     0
102
SHADEPLOTRESLEVEL
 70
     2
102
SHADEPLOTCUSTOMDPI
 70
   300
  0
ENDSEC
  0
EOF
