  0
SECTION
  2
HEADER
  9
$ACADVER
  1
AC1021
  9
$ACADMAINTVER
 70
    25
  9
$DWGCODEPAGE
  3
ANSI_1252
  9
$INSBASE
 10
0.0
 20
0.0
 30
0.0
  9
$EXTMIN
 10
-15.21
 20
-6.48
 30
0.0
  9
$EXTMAX
 10
296.2892125984253
 20
213.771968503937
 30
0.0
  9
$LIMMIN
 10
0.0
 20
0.0
  9
$LIMMAX
 10
399.973028
 20
520.8439979999999
  9
$ORTHOMODE
 70
     0
  9
$REGENMODE
 70
     1
  9
$FILLMODE
 70
     1
  9
$QTEXTMODE
 70
     0
  9
$MIRRTEXT
 70
     1
  9
$LTSCALE
 40
1.0
  9
$ATTMODE
 70
     0
  9
$TEXTSIZE
 40
5.0
  9
$TRACEWID
 40
1.0
  9
$TEXTSTYLE
  7
Standard
  9
$CLAYER
  8
0
  9
$CELTYPE
  6
ByLayer
  9
$CECOLOR
 62
     7
  9
$CELTSCALE
 40
1.0
  9
$DISPSILH
 70
     0
  9
$DIMSCALE
 40
1.0
  9
$DIMASZ
 40
3.0
  9
$DIMEXO
 40
1.0
  9
$DIMDLI
 40
7.5
  9
$DIMRND
 40
2.0
  9
$DIMDLE
 40
0.0
  9
$DIMEXE
 40
2.0
  9
$DIMTP
 40
0.0
  9
$DIMTM
 40
0.0
  9
$DIMTXT
 40
2.272727
  9
$DIMCEN
 40
0.09
  9
$DIMTSZ
 40
0.0
  9
$DIMTOL
 70
     0
  9
$DIMLIM
 70
     0
  9
$DIMTIH
 70
     1
  9
$DIMTOH
 70
     1
  9
$DIMSE1
 70
     0
  9
$DIMSE2
 70
     0
  9
$DIMTAD
 70
     1
  9
$DIMZIN
 70
     8
  9
$DIMBLK
  1

  9
$DIMASO
 70
     0
  9
$DIMSHO
 70
     1
  9
$DIMPOST
  1

  9
$DIMAPOST
  1

  9
$DIMALT
 70
     0
  9
$DIMALTD
 70
     2
  9
$DIMALTF
 40
25.0
  9
$DIMLFAC
 40
1.0
  9
$DIMTOFL
 70
     1
  9
$DIMTVP
 40
0.0
  9
$DIMTIX
 70
     1
  9
$DIMSOXD
 70
     0
  9
$DIMSAH
 70
     0
  9
$DIMBLK1
  1

  9
$DIMBLK2
  1

  9
$DIMSTYLE
  2
Standard
  9
$DIMCLRD
 70
     7
  9
$DIMCLRE
 70
     7
  9
$DIMCLRT
 70
     7
  9
$DIMTFAC
 40
1.0
  9
$DIMGAP
 40
2.0
  9
$DIMJUST
 70
     0
  9
$DIMSD1
 70
     0
  9
$DIMSD2
 70
     0
  9
$DIMTOLJ
 70
     1
  9
$DIMTZIN
 70
     0
  9
$DIMALTZ
 70
     0
  9
$DIMALTTZ
 70
     0
  9
$DIMUPT
 70
     0
  9
$DIMDEC
 70
     4
  9
$DIMTDEC
 70
     4
  9
$DIMALTU
 70
     2
  9
$DIMALTTD
 70
     2
  9
$DIMTXSTY
  7
Standard
  9
$DIMAUNIT
 70
     0
  9
$DIMADEC
 70
     0
  9
$DIMALTRND
 40
0.0
  9
$DIMAZIN
 70
     0
  9
$DIMDSEP
 70
    46
  9
$DIMATFIT
 70
     3
  9
$DIMFRAC
 70
     0
  9
$DIMLDRBLK
  1

  9
$DIMLUNIT
 70
     2
  9
$DIMLWD
 70
    -2
  9
$DIMLWE
 70
    -2
  9
$DIMTMOVE
 70
     0
  9
$DIMFXL
 40
1.0
  9
$DIMFXLON
 70
     0
  9
$DIMJOGANG
 40
0.7853981633974483
  9
$DIMTFILL
 70
     0
  9
$DIMTFILLCLR
 70
     0
  9
$DIMARCSYM
 70
     0
  9
$DIMLTYPE
  6

  9
$DIMLTEX1
  6

  9
$DIMLTEX2
  6

  9
$LUNITS
 70
     2
  9
$LUPREC
 70
     2
  9
$SKETCHINC
 40
1.0
  9
$FILLETRAD
 40
5.0
  9
$AUNITS
 70
     0
  9
$AUPREC
 70
     2
  9
$MENU
  1
.
  9
$ELEVATION
 40
0.0
  9
$PELEVATION
 40
0.0
  9
$THICKNESS
 40
0.0
  9
$LIMCHECK
 70
     0
  9
$CHAMFERA
 40
0.5
  9
$CHAMFERB
 40
0.5
  9
$CHAMFERC
 40
1.0
  9
$CHAMFERD
 40
0.0
  9
$SKPOLY
 70
     0
  9
$TDCREATE
 40
2455329.729617327
  9
$TDUCREATE
 40
2455329.354617327
  9
$TDUPDATE
 40
2455329.729617338
  9
$TDUUPDATE
 40
2455329.354617338
  9
$TDINDWG
 40
0.0
  9
$TDUSRTIMER
 40
0.0
  9
$USRTIMER
 70
     1
  9
$ANGBASE
 50
0.0
  9
$ANGDIR
 70
     1
  9
$PDMODE
 70
     0
  9
$PDSIZE
 40
0.0
  9
$PLINEWID
 40
0.0
  9
$SPLFRAME
 70
     0
  9
$SPLINETYPE
 70
     5
  9
$SPLINESEGS
 70
    20
  9
$HANDSEED
  5
441
  9
$SURFTAB1
 70
     6
  9
$SURFTAB2
 70
     6
  9
$SURFTYPE
 70
     6
  9
$SURFU
 70
     6
  9
$SURFV
 70
     6
  9
$UCSBASE
  2

  9
$UCSNAME
  2

  9
$UCSORG
 10
0.0
 20
0.0
 30
0.0
  9
$UCSXDIR
 10
1.0
 20
0.0
 30
0.0
  9
$UCSYDIR
 10
0.0
 20
1.0
 30
0.0
  9
$UCSORTHOREF
  2

  9
$UCSORTHOVIEW
 70
     0
  9
$UCSORGTOP
 10
0.0
 20
0.0
 30
0.0
  9
$UCSORGBOTTOM
 10
0.0
 20
0.0
 30
0.0
  9
$UCSORGLEFT
 10
0.0
 20
0.0
 30
0.0
  9
$UCSORGRIGHT
 10
0.0
 20
0.0
 30
0.0
  9
$UCSORGFRONT
 10
0.0
 20
0.0
 30
0.0
  9
$UCSORGBACK
 10
0.0
 20
0.0
 30
0.0
  9
$PUCSBASE
  2

  9
$PUCSNAME
  2

  9
$PUCSORG
 10
0.0
 20
0.0
 30
0.0
  9
$PUCSXDIR
 10
1.0
 20
0.0
 30
0.0
  9
$PUCSYDIR
 10
0.0
 20
1.0
 30
0.0
  9
$PUCSORTHOREF
  2

  9
$PUCSORTHOVIEW
 70
     0
  9
$PUCSORGTOP
 10
0.0
 20
0.0
 30
0.0
  9
$PUCSORGBOTTOM
 10
0.0
 20
0.0
 30
0.0
  9
$PUCSORGLEFT
 10
0.0
 20
0.0
 30
0.0
  9
$PUCSORGRIGHT
 10
0.0
 20
0.0
 30
0.0
  9
$PUCSORGFRONT
 10
0.0
 20
0.0
 30
0.0
  9
$PUCSORGBACK
 10
0.0
 20
0.0
 30
0.0
  9
$USERI1
 70
     0
  9
$USERI2
 70
     0
  9
$USERI3
 70
     0
  9
$USERI4
 70
     0
  9
$USERI5
 70
     0
  9
$USERR1
 40
0.0
  9
$USERR2
 40
0.0
  9
$USERR3
 40
0.0
  9
$USERR4
 40
0.0
  9
$USERR5
 40
0.0
  9
$WORLDVIEW
 70
     1
  9
$SHADEDGE
 70
     3
  9
$SHADEDIF
 70
    70
  9
$TILEMODE
 70
     0
  9
$MAXACTVP
 70
    64
  9
$PINSBASE
 10
0.0
 20
0.0
 30
0.0
  9
$PLIMCHECK
 70
     0
  9
$PEXTMIN
 10
-15.21
 20
-6.48
 30
0.0
  9
$PEXTMAX
 10
296.2892125984253
 20
213.771968503937
 30
0.0
  9
$PLIMMIN
 10
-15.21
 20
-6.48
  9
$PLIMMAX
 10
296.2892125984253
 20
213.771968503937
  9
$UNITMODE
 70
     0
  9
$VISRETAIN
 70
     1
  9
$PLINEGEN
 70
     0
  9
$PSLTSCALE
 70
     1
  9
$TREEDEPTH
 70
  3020
  9
$CMLSTYLE
  2
Standard
  9
$CMLJUST
 70
     0
  9
$CMLSCALE
 40
1.0
  9
$PROXYGRAPHICS
 70
     1
  9
$MEASUREMENT
 70
     1
  9
$CELWEIGHT
370
    -1
  9
$ENDCAPS
280
     0
  9
$JOINSTYLE
280
     0
  9
$LWDISPLAY
290
     0
  9
$INSUNITS
 70
     1
  9
$HYPERLINKBASE
  1

  9
$STYLESHEET
  1

  9
$XEDIT
290
     1
  9
$CEPSNTYPE
380
     0
  9
$PSTYLEMODE
290
     1
  9
$FINGERPRINTGUID
  2
{7AE7F783-CA06-4D13-BD15-4F079D566DB0}
  9
$VERSIONGUID
  2
{FAEB1C32-E019-11D5-929B-00C0DF256EC4}
  9
$EXTNAMES
290
     1
  9
$PSVPSCALE
 40
0.0
  9
$OLESTARTUP
290
     0
  9
$SORTENTS
280
   127
  9
$INDEXCTL
280
     0
  9
$HIDETEXT
280
     1
  9
$XCLIPFRAME
290
     0
  9
$HALOGAP
280
     0
  9
$OBSCOLOR
 70
   257
  9
$OBSLTYPE
280
     0
  9
$INTERSECTIONDISPLAY
280
     0
  9
$INTERSECTIONCOLOR
 70
   257
  9
$DIMASSOC
280
     2
  9
$PROJECTNAME
  1

  9
$CAMERADISPLAY
290
     0
  9
$LENSLENGTH
 40
50.0
  9
$CAMERAHEIGHT
 40
0.0
  9
$STEPSPERSEC
 40
2.0
  9
$STEPSIZE
 40
6.0
  9
$3DDWFPREC
 40
2.0
  9
$PSOLWIDTH
 40
0.25
  9
$PSOLHEIGHT
 40
4.0
  9
$LOFTANG1
 40
1.570796326794897
  9
$LOFTANG2
 40
1.570796326794897
  9
$LOFTMAG1
 40
0.0
  9
$LOFTMAG2
 40
0.0
  9
$LOFTPARAM
 70
     7
  9
$LOFTNORMALS
280
     1
  9
$LATITUDE
 40
37.795
  9
$LONGITUDE
 40
-122.394
  9
$NORTHDIRECTION
 40
0.0
  9
$TIMEZONE
 70
 -8000
  9
$LIGHTGLYPHDISPLAY
280
     1
  9
$TILEMODELIGHTSYNCH
280
     1
  9
$SOLIDHIST
280
     1
  9
$SHOWHIST
280
     1
  9
$DWFFRAME
280
     2
  9
$DGNFRAME
280
     2
  9
$REALWORLDSCALE
290
     1
  9
$INTERFERECOLOR
 62
   256
  9
$CSHADOW
280
     0
  9
$SHADOWPLANELOCATION
 40
0.0
  0
ENDSEC
  0
SECTION
  2
CLASSES
  0
CLASS
  1
ACDBDICTIONARYWDFLT
  2
AcDbDictionaryWithDefault
  3
ObjectDBX Classes
 90
        0
 91
        4
280
     0
281
     0
  0
CLASS
  1
VISUALSTYLE
  2
AcDbVisualStyle
  3
ObjectDBX Classes
 90
     4095
 91
        4
280
     0
281
     0
  0
CLASS
  1
SCALE
  2
AcDbScale
  3
ObjectDBX Classes
 90
        0
 91
        4
280
     0
281
     0
  0
CLASS
  1
TABLESTYLE
  2
AcDbTableStyle
  3
ObjectDBX Classes
 90
     4095
 91
        3
280
     0
281
     0
  0
CLASS
  1
TCOPTIONALDATA
  2
TcOptionalData
  3
ExTcadCustObjs|Description: TurboCAD extension data object
 90
        0
 91
        3
280
     0
281
     0
  0
ENDSEC
  0
SECTION
  2
TABLES
  0
TABLE
  2
VPORT
  5
8
330
0
100
AcDbSymbolTable
 70
     1
  0
VPORT
  5
29
330
8
100
AcDbSymbolTableRecord
100
AcDbViewportTableRecord
  2
*Active
 70
     0
 10
0.0
 20
0.0
 11
1.0
 21
1.0
 12
0.0
 22
0.0
 13
0.0
 23
0.0
 14
10.0
 24
10.0
 15
10.0
 25
10.0
 16
0.0
 26
0.0
 36
1.0
 17
140.530726
 27
103.64068
 37
0.0
 40
22021.69504131468
 41
1.20532319391635
 42
50.0
 43
0.0
 44
0.0
 50
0.0
 51
0.0
 71
     0
 72
   100
 73
     1
 74
     3
 75
     0
 76
     1
 77
     0
 78
     0
281
     0
 65
     1
110
0.0
120
0.0
130
0.0
111
1.0
121
0.0
131
0.0
112
0.0
122
1.0
132
0.0
 79
     0
146
0.0
 60
     3
 61
     5
292
     1
282
     1
141
0.0
142
0.0
 63
   256
  0
ENDTAB
  0
TABLE
  2
LTYPE
  5
5
330
0
100
AcDbSymbolTable
 70
    21
  0
LTYPE
  5
14
330
5
100
AcDbSymbolTableRecord
100
AcDbLinetypeTableRecord
  2
ByBlock
 70
     0
  3

 72
    65
 73
     0
 40
0.0
  0
LTYPE
  5
15
330
5
100
AcDbSymbolTableRecord
100
AcDbLinetypeTableRecord
  2
ByLayer
 70
     0
  3

 72
    65
 73
     0
 40
0.0
  0
LTYPE
  5
16
330
5
100
AcDbSymbolTableRecord
100
AcDbLinetypeTableRecord
  2
Continuous
 70
     0
  3
Solid line
 72
    65
 73
     0
 40
0.0
  0
LTYPE
  5
5E
330
5
100
AcDbSymbolTableRecord
100
AcDbLinetypeTableRecord
  2
BORDER
 70
     0
  3
BORDER
 72
    65
 73
     6
 40
1.75
 49
0.5
 74
     0
 49
-0.25
 74
     0
 49
0.5
 74
     0
 49
-0.25
 74
     0
 49
0.0
 74
     0
 49
-0.25
 74
     0
  0
LTYPE
  5
5F
330
5
100
AcDbSymbolTableRecord
100
AcDbLinetypeTableRecord
  2
CENTER
 70
     0
  3
CENTER
 72
    65
 73
     5
 40
12.0
 49
5.0
 74
     0
 49
-0.8
 74
     0
 49
0.4
 74
     0
 49
-0.8
 74
     0
 49
5.0
 74
     0
  0
LTYPE
  5
60
330
5
100
AcDbSymbolTableRecord
100
AcDbLinetypeTableRecord
  2
DASHDOT
 70
     0
  3
DASHDOT
 72
    65
 73
     4
 40
1.0
 49
0.5
 74
     0
 49
-0.25
 74
     0
 49
0.0
 74
     0
 49
-0.25
 74
     0
  0
LTYPE
  5
61
330
5
100
AcDbSymbolTableRecord
100
AcDbLinetypeTableRecord
  2
DASHED
 70
     0
  3
DASHED
 72
    65
 73
     2
 40
0.75
 49
0.5
 74
     0
 49
-0.25
 74
     0
  0
LTYPE
  5
62
330
5
100
AcDbSymbolTableRecord
100
AcDbLinetypeTableRecord
  2
DIVIDE
 70
     0
  3
DIVIDE
 72
    65
 73
     6
 40
1.25
 49
0.5
 74
     0
 49
-0.25
 74
     0
 49
0.0
 74
     0
 49
-0.25
 74
     0
 49
0.0
 74
     0
 49
-0.25
 74
     0
  0
LTYPE
  5
63
330
5
100
AcDbSymbolTableRecord
100
AcDbLinetypeTableRecord
  2
DOT
 70
     0
  3
DOT
 72
    65
 73
     2
 40
0.25
 49
0.0
 74
     0
 49
-0.25
 74
     0
  0
LTYPE
  5
64
330
5
100
AcDbSymbolTableRecord
100
AcDbLinetypeTableRecord
  2
HIDDEN
 70
     0
  3
HIDDEN
 72
    65
 73
     2
 40
0.375
 49
0.25
 74
     0
 49
-0.125
 74
     0
  0
LTYPE
  5
65
330
5
100
AcDbSymbolTableRecord
100
AcDbLinetypeTableRecord
  2
PHANTOM
 70
     0
  3
PHANTOM
 72
    65
 73
     6
 40
2.5
 49
1.25
 74
     0
 49
-0.25
 74
     0
 49
0.25
 74
     0
 49
-0.25
 74
     0
 49
0.25
 74
     0
 49
-0.25
 74
     0
  0
LTYPE
  5
66
330
5
100
AcDbSymbolTableRecord
100
AcDbLinetypeTableRecord
  2
$INVISIBLE
 70
     0
  3
$INVISIBLE
 72
    65
 73
     2
 40
200.0
 49
-100.0
 74
     0
 49
-100.0
 74
     0
  0
LTYPE
  5
67
330
5
100
AcDbSymbolTableRecord
100
AcDbLinetypeTableRecord
  2
$DDT_AUDIT_GENERATED_(34)
 70
     0
  3
$DDT_AUDIT_GENERATED_(34)
 72
    65
 73
     6
 40
1.75
 49
0.5
 74
     0
 49
-0.25
 74
     0
 49
0.5
 74
     0
 49
-0.25
 74
     0
 49
0.0
 74
     0
 49
-0.25
 74
     0
  0
LTYPE
  5
68
330
5
100
AcDbSymbolTableRecord
100
AcDbLinetypeTableRecord
  2
RENAMED_0
 70
     0
  3
RENAMED_0
 72
    65
 73
     4
 40
2.0
 49
1.25
 74
     0
 49
-0.25
 74
     0
 49
0.25
 74
     0
 49
-0.25
 74
     0
  0
LTYPE
  5
69
330
5
100
AcDbSymbolTableRecord
100
AcDbLinetypeTableRecord
  2
RENAMED_1
 70
     0
  3
RENAMED_1
 72
    65
 73
     4
 40
1.0
 49
0.5
 74
     0
 49
-0.25
 74
     0
 49
0.0
 74
     0
 49
-0.25
 74
     0
  0
LTYPE
  5
6A
330
5
100
AcDbSymbolTableRecord
100
AcDbLinetypeTableRecord
  2
RENAMED_2
 70
     0
  3
RENAMED_2
 72
    65
 73
     2
 40
0.75
 49
0.5
 74
     0
 49
-0.25
 74
     0
  0
LTYPE
  5
6B
330
5
100
AcDbSymbolTableRecord
100
AcDbLinetypeTableRecord
  2
RENAMED_3
 70
     0
  3
RENAMED_3
 72
    65
 73
     6
 40
1.25
 49
0.5
 74
     0
 49
-0.25
 74
     0
 49
0.0
 74
     0
 49
-0.25
 74
     0
 49
0.0
 74
     0
 49
-0.25
 74
     0
  0
LTYPE
  5
6C
330
5
100
AcDbSymbolTableRecord
100
AcDbLinetypeTableRecord
  2
$DDT_AUDIT_GENERATED_(39)
 70
     0
  3
$DDT_AUDIT_GENERATED_(39)
 72
    65
 73
     2
 40
0.25
 49
0.0
 74
     0
 49
-0.25
 74
     0
  0
LTYPE
  5
6D
330
5
100
AcDbSymbolTableRecord
100
AcDbLinetypeTableRecord
  2
RENAMED_4
 70
     0
  3
RENAMED_4
 72
    65
 73
     2
 40
0.375
 49
0.25
 74
     0
 49
-0.125
 74
     0
  0
LTYPE
  5
6E
330
5
100
AcDbSymbolTableRecord
100
AcDbLinetypeTableRecord
  2
RENAMED_5
 70
     0
  3
RENAMED_5
 72
    65
 73
     6
 40
2.5
 49
1.25
 74
     0
 49
-0.25
 74
     0
 49
0.25
 74
     0
 49
-0.25
 74
     0
 49
0.25
 74
     0
 49
-0.25
 74
     0
  0
LTYPE
  5
6F
330
5
100
AcDbSymbolTableRecord
100
AcDbLinetypeTableRecord
  2
$AUXILIARY
 70
     0
  3
$AUXILIARY
 72
    65
 73
     2
 40
0.1
 49
0.05
 74
     0
 49
-0.05
 74
     0
  0
LTYPE
  5
70
330
5
100
AcDbSymbolTableRecord
100
AcDbLinetypeTableRecord
  2
$CONSTRUCTION
 70
     0
  3
$CONSTRUCTION
 72
    65
 73
     4
 40
0.3
 49
0.2
 74
     0
 49
-0.05
 74
     0
 49
0.0
 74
     0
 49
-0.05
 74
     0
  0
LTYPE
  5
71
330
5
100
AcDbSymbolTableRecord
100
AcDbLinetypeTableRecord
  2
$SNAPEXT
 70
     0
  3
$SNAPEXT
 72
    65
 73
     2
 40
0.04
 49
0.02
 74
     0
 49
-0.02
 74
     0
  0
ENDTAB
  0
TABLE
  2
LAYER
  5
2
330
0
100
AcDbSymbolTable
 70
     2
  0
LAYER
  5
10
330
2
100
AcDbSymbolTableRecord
100
AcDbLayerTableRecord
  2
0
 70
     0
 62
     7
  6
Continuous
370
     0
390
F
347
0
  0
LAYER
  5
72
330
2
100
AcDbSymbolTableRecord
100
AcDbLayerTableRecord
  2
ASHADE
 70
     0
 62
     7
  6
Continuous
370
     0
390
F
347
0
  0
ENDTAB
  0
TABLE
  2
STYLE
  5
3
330
0
100
AcDbSymbolTable
 70
    23
  0
STYLE
  5
11
330
3
100
AcDbSymbolTableRecord
100
AcDbTextStyleTableRecord
  2
Standard
 70
     0
 40
0.0
 41
1.0
 50
0.0
 71
     0
 42
0.2
  3
txt
  4

  0
STYLE
  5
80
330
3
100
AcDbSymbolTableRecord
100
AcDbTextStyleTableRecord
  2
_TCW_TXTSTY_1
 70
     0
 40
0.0
 41
1.0
 50
0.0
 71
     0
 42
0.0236220471560955
  3
TXT.SHX
  4

  0
STYLE
  5
85
330
3
100
AcDbSymbolTableRecord
100
AcDbTextStyleTableRecord
  2
_TCW_TXTSTY_2
 70
     0
 40
0.0
 41
1.0
 50
0.0
 71
     0
 42
0.0230458993464708
  3
MSGOTHIC.TTC.SHX
  4

  0
STYLE
  5
2A5
330
3
100
AcDbSymbolTableRecord
100
AcDbTextStyleTableRecord
  2
_TCW_TXTSTY_3
 70
     0
 40
0.0
 41
0.8
 50
0.0
 71
     0
 42
2.30400013923645
  3
MSGOTHIC.TTC
  4

1001
ACAD
1000
ＭＳ ゴシック
1071
    32802
  0
STYLE
  5
2A7
330
3
100
AcDbSymbolTableRecord
100
AcDbTextStyleTableRecord
  2
_TCW_TXTSTY_4
 70
     0
 40
0.0
 41
0.87
 50
0.0
 71
     0
 42
2.30400013923645
  3

  4

1001
ACAD
1000
ＭＳ ゴシック
1071
    32802
  0
STYLE
  5
2A9
330
3
100
AcDbSymbolTableRecord
100
AcDbTextStyleTableRecord
  2
_TCW_TXTSTY_5
 70
     0
 40
0.0
 41
0.88
 50
0.0
 71
     0
 42
2.30400013923645
  3

  4

1001
ACAD
1000
ＭＳ ゴシック
1071
    32802
  0
STYLE
  5
2AB
330
3
100
AcDbSymbolTableRecord
100
AcDbTextStyleTableRecord
  2
_TCW_TXTSTY_6
 70
     0
 40
0.0
 41
0.8
 50
0.0
 71
     0
 42
2.30400013923645
  3

  4

1001
ACAD
1000
ＭＳ ゴシック
1071
    32802
  0
STYLE
  5
2DD
330
3
100
AcDbSymbolTableRecord
100
AcDbTextStyleTableRecord
  2
_TCW_TXTSTY_7
 70
     0
 40
0.0
 41
0.97
 50
0.0
 71
     0
 42
2.30400013923645
  3

  4

1001
ACAD
1000
ＭＳ ゴシック
1071
    32802
  0
STYLE
  5
30F
330
3
100
AcDbSymbolTableRecord
100
AcDbTextStyleTableRecord
  2
_TCW_TXTSTY_8
 70
     0
 40
0.0
 41
1.0
 50
0.0
 71
     0
 42
2.30400013923645
  3

  4

1001
ACAD
1000
?l?r ?S?V?b?N
1071
      290
  0
STYLE
  5
31F
330
3
100
AcDbSymbolTableRecord
100
AcDbTextStyleTableRecord
  2
_TCW_TXTSTY_9
 70
     0
 40
0.0
 41
0.97
 50
0.0
 71
     0
 42
2.30400013923645
  3

  4

1001
ACAD
1000
?l?r ?S?V?b?N
1071
      290
  0
STYLE
  5
37C
330
3
100
AcDbSymbolTableRecord
100
AcDbTextStyleTableRecord
  2
_TCW_TXTSTY_A
 70
     0
 40
0.0
 41
1.61
 50
0.0
 71
     0
 42
2.30400013923645
  3

  4

1001
ACAD
1000
?l?r ?S?V?b?N
1071
      290
  0
STYLE
  5
3B4
330
3
100
AcDbSymbolTableRecord
100
AcDbTextStyleTableRecord
  2
_TCW_TXTSTY_B
 70
     0
 40
0.0
 41
0.18
 50
0.0
 71
     0
 42
3.944095134735107
  3

  4

1001
ACAD
1000
?l?r ?S?V?b?N
1071
      290
  0
STYLE
  5
3B6
330
3
100
AcDbSymbolTableRecord
100
AcDbTextStyleTableRecord
  2
_TCW_TXTSTY_C
 70
     0
 40
0.0
 41
0.83
 50
0.0
 71
     0
 42
2.30400013923645
  3

  4

1001
ACAD
1000
?l?r ?S?V?b?N
1071
      290
  0
STYLE
  5
3BB
330
3
100
AcDbSymbolTableRecord
100
AcDbTextStyleTableRecord
  2
_TCW_TXTSTY_D
 70
     0
 40
0.0
 41
0.86
 50
0.0
 71
     0
 42
2.307140111923218
  3

  4

1001
ACAD
1000
?l?r ?S?V?b?N
1071
      290
  0
STYLE
  5
3D8
330
3
100
AcDbSymbolTableRecord
100
AcDbTextStyleTableRecord
  2
_TCW_TXTSTY_E
 70
     0
 40
0.0
 41
1.3
 50
0.0
 71
     0
 42
4.076398849487305
  3
ARIAL.TTF
  4

1001
ACAD
1000
Arial
1071
       34
  0
STYLE
  5
3DD
330
3
100
AcDbSymbolTableRecord
100
AcDbTextStyleTableRecord
  2
_TCW_TXTSTY_F
 70
     0
 40
0.0
 41
0.8
 50
0.0
 71
     0
 42
2.306020975112915
  3

  4

1001
ACAD
1000
?l?r ?S?V?b?N
1071
      290
  0
STYLE
  5
3E5
330
3
100
AcDbSymbolTableRecord
100
AcDbTextStyleTableRecord
  2
_TCW_TXTSTY_10
 70
     0
 40
0.0
 41
0.89
 50
0.0
 71
     0
 42
2.272727012634277
  3

  4

1001
ACAD
1000
?l?r ?S?V?b?N
1071
      290
  0
STYLE
  5
432
330
3
100
AcDbSymbolTableRecord
100
AcDbTextStyleTableRecord
  2
_TCW_TXTSTY_11
 70
     0
 40
0.0
 41
1.24
 50
0.0
 71
     0
 42
1.435431003570557
  3

  4

1001
ACAD
1000
Arial
1071
       34
  0
STYLE
  5
434
330
3
100
AcDbSymbolTableRecord
100
AcDbTextStyleTableRecord
  2
_TCW_TXTSTY_12
 70
     0
 40
0.0
 41
1.28
 50
0.0
 71
     0
 42
1.435429930686951
  3

  4

1001
ACAD
1000
Arial
1071
       34
  0
STYLE
  5
436
330
3
100
AcDbSymbolTableRecord
100
AcDbTextStyleTableRecord
  2
_TCW_TXTSTY_13
 70
     0
 40
0.0
 41
1.19
 50
0.0
 71
     0
 42
1.435429930686951
  3

  4

1001
ACAD
1000
Arial
1071
       34
  0
STYLE
  5
439
330
3
100
AcDbSymbolTableRecord
100
AcDbTextStyleTableRecord
  2
_TCW_TXTSTY_14
 70
     0
 40
0.0
 41
1.17
 50
0.0
 71
     0
 42
1.435431003570557
  3

  4

1001
ACAD
1000
Arial
1071
       34
  0
STYLE
  5
43B
330
3
100
AcDbSymbolTableRecord
100
AcDbTextStyleTableRecord
  2
_TCW_TXTSTY_15
 70
     0
 40
0.0
 41
1.15
 50
0.0
 71
     0
 42
1.435429930686951
  3

  4

1001
ACAD
1000
Arial
1071
       34
  0
STYLE
  5
43D
330
3
100
AcDbSymbolTableRecord
100
AcDbTextStyleTableRecord
  2
_TCW_TXTSTY_16
 70
     0
 40
0.0
 41
1.25
 50
0.0
 71
     0
 42
1.435429930686951
  3

  4

1001
ACAD
1000
Arial
1071
       34
  0
ENDTAB
  0
TABLE
  2
VIEW
  5
6
330
0
100
AcDbSymbolTable
 70
    12
  0
VIEW
  5
73
330
6
100
AcDbSymbolTableRecord
100
AcDbViewTableRecord
  2
表示_0
 70
     0
 40
210.0
 10
148.5
 20
105.0
 41
297.0
 11
0.0
 21
0.0
 31
1.0
 12
0.0
 22
0.0
 32
0.0
 42
50.0
 43
0.0
 44
0.0
 50
0.0
 71
     0
281
     0
 72
     0
 73
     0
  0
VIEW
  5
74
330
6
100
AcDbSymbolTableRecord
100
AcDbViewTableRecord
  2
View_1
 70
     0
 40
210.0
 10
148.5
 20
105.0
 41
304.6898706576931
 11
0.0
 21
0.0
 31
1.0
 12
0.0
 22
0.0
 32
0.0
 42
50.0
 43
0.0
 44
0.0
 50
0.0
 71
     0
281
     0
 72
     0
 73
     0
  0
VIEW
  5
75
330
6
100
AcDbSymbolTableRecord
100
AcDbViewTableRecord
  2
View_2
 70
     0
 40
210.0
 10
0.0000053928270063
 20
-0.0000033483459987
 41
304.689870657693
 11
0.0
 21
0.0
 31
1.0
 12
148.5
 22
105.0
 32
0.0
 42
50.0
 43
0.0
 44
0.0
 50
0.0
 71
     0
281
     0
 72
     0
 73
     0
  0
VIEW
  5
76
330
6
100
AcDbSymbolTableRecord
100
AcDbViewTableRecord
  2
View_3
 70
     0
 40
210.0000000000003
 10
148.5000053928274
 20
104.9999966516539
 41
304.6898706576932
 11
0.0
 21
0.0
 31
1.0
 12
0.0
 22
0.0
 32
0.0
 42
50.0
 43
0.0
 44
0.0
 50
0.0
 71
     0
281
     0
 72
     0
 73
     0
  0
VIEW
  5
77
330
6
100
AcDbSymbolTableRecord
100
AcDbViewTableRecord
  2
View_4
 70
     0
 40
210.0000000000003
 10
0.0000053928273474
 20
-0.000003348346084
 41
304.6898706576931
 11
0.0
 21
0.0
 31
1.0
 12
148.5000053928274
 22
104.9999966516539
 32
0.0
 42
50.0
 43
0.0
 44
0.0
 50
0.0
 71
     0
281
     0
 72
     0
 73
     0
  0
VIEW
  5
78
330
6
100
AcDbSymbolTableRecord
100
AcDbViewTableRecord
  2
View_5
 70
     0
 40
210.0000000000003
 10
0.0000107856546947
 20
-0.0000066966921679
 41
304.6898706576931
 11
0.0
 21
0.0
 31
1.0
 12
148.5000053928274
 22
104.9999966516539
 32
0.0
 42
50.0
 43
0.0
 44
0.0
 50
0.0
 71
     0
281
     0
 72
     0
 73
     0
  0
VIEW
  5
79
330
6
100
AcDbSymbolTableRecord
100
AcDbViewTableRecord
  2
View_6
 70
     0
 40
210.0000000000003
 10
0.0000161784820421
 20
-0.0000100450382519
 41
304.6898706576931
 11
0.0
 21
0.0
 31
1.0
 12
148.5000053928274
 22
104.9999966516539
 32
0.0
 42
50.0
 43
0.0
 44
0.0
 50
0.0
 71
     0
281
     0
 72
     0
 73
     0
  0
VIEW
  5
7A
330
6
100
AcDbSymbolTableRecord
100
AcDbViewTableRecord
  2
View_7
 70
     0
 40
210.0000000000003
 10
0.0000215713093894
 20
-0.0000133933843358
 41
304.6898706576931
 11
0.0
 21
0.0
 31
1.0
 12
148.5000053928274
 22
104.9999966516539
 32
0.0
 42
50.0
 43
0.0
 44
0.0
 50
0.0
 71
     0
281
     0
 72
     0
 73
     0
  0
VIEW
  5
7B
330
6
100
AcDbSymbolTableRecord
100
AcDbViewTableRecord
  2
View_8
 70
     0
 40
210.0000000000003
 10
0.0000269641367368
 20
-0.0000167417304198
 41
304.6898706576931
 11
0.0
 21
0.0
 31
1.0
 12
148.5000053928274
 22
104.9999966516539
 32
0.0
 42
50.0
 43
0.0
 44
0.0
 50
0.0
 71
     0
281
     0
 72
     0
 73
     0
  0
VIEW
  5
7C
330
6
100
AcDbSymbolTableRecord
100
AcDbViewTableRecord
  2
View_9
 70
     0
 40
210.0000000000003
 10
0.0000323569640841
 20
-0.0000200900765037
 41
304.6898706576931
 11
0.0
 21
0.0
 31
1.0
 12
148.5000053928274
 22
104.9999966516539
 32
0.0
 42
50.0
 43
0.0
 44
0.0
 50
0.0
 71
     0
281
     0
 72
     0
 73
     0
  0
VIEW
  5
7D
330
6
100
AcDbSymbolTableRecord
100
AcDbViewTableRecord
  2
View_10
 70
     0
 40
210.0000000000003
 10
0.0000377497914315
 20
-0.0000234384225877
 41
304.6898706576931
 11
0.0
 21
0.0
 31
1.0
 12
148.5000053928274
 22
104.9999966516539
 32
0.0
 42
50.0
 43
0.0
 44
0.0
 50
0.0
 71
     0
281
     0
 72
     0
 73
     0
  0
VIEW
  5
7E
330
6
100
AcDbSymbolTableRecord
100
AcDbViewTableRecord
  2
View_11
 70
     0
 40
210.0000000000003
 10
0.0000431426187788
 20
-0.0000267867686716
 41
304.6898706576931
 11
0.0
 21
0.0
 31
1.0
 12
148.5000053928274
 22
104.9999966516539
 32
0.0
 42
50.0
 43
0.0
 44
0.0
 50
0.0
 71
     0
281
     0
 72
     0
 73
     0
  0
ENDTAB
  0
TABLE
  2
UCS
  5
7
330
0
100
AcDbSymbolTable
 70
     0
  0
ENDTAB
  0
TABLE
  2
APPID
  5
9
330
0
100
AcDbSymbolTable
 70
     2
  0
APPID
  5
12
330
9
100
AcDbSymbolTableRecord
100
AcDbRegAppTableRecord
  2
ACAD
 70
     0
  0
APPID
  5
5D
330
9
100
AcDbSymbolTableRecord
100
AcDbRegAppTableRecord
  2
TCAD
 70
     0
  0
ENDTAB
  0
TABLE
  2
DIMSTYLE
  5
A
330
0
100
AcDbSymbolTable
 70
     6
100
AcDbDimStyleTable
  0
DIMSTYLE
105
27
330
A
100
AcDbSymbolTableRecord
100
AcDbDimStyleTableRecord
  2
Standard
 70
     0
340
11
  0
DIMSTYLE
105
7F
330
A
100
AcDbSymbolTableRecord
100
AcDbDimStyleTableRecord
  2
標準寸法
 70
     0
 40
0.0393700787401575
 45
0.0000001
148
0.0000001
179
     4
340
80
  0
DIMSTYLE
105
81
330
A
100
AcDbSymbolTableRecord
100
AcDbDimStyleTableRecord
  2
標準寸法0
 70
     0
 40
0.0015500031000062
 45
0.0000001
148
0.0000001
179
     4
340
80
  0
DIMSTYLE
105
82
330
A
100
AcDbSymbolTableRecord
100
AcDbDimStyleTableRecord
  2
標準寸法00
 70
     0
 40
0.0000610237440947
 45
0.0000001
148
0.0000001
179
     4
340
80
  0
DIMSTYLE
105
83
330
A
100
AcDbSymbolTableRecord
100
AcDbDimStyleTableRecord
  2
標準寸法000
 70
     0
 40
0.00000240250961
 45
0.0000001
148
0.0000001
179
     4
340
80
  0
DIMSTYLE
105
84
330
A
100
AcDbSymbolTableRecord
100
AcDbDimStyleTableRecord
  2
標準寸法0000
 70
     0
 40
0.9999999999999999
 41
3.0
 42
1.0
 43
7.5
 44
2.0
 45
2.0
 77
     1
 78
     8
140
0.6122986935096861
147
2.0
148
0.0000001
172
     1
176
     7
177
     7
178
     7
179
     4
285
     8
340
85
  0
ENDTAB
  0
TABLE
  2
BLOCK_RECORD
  5
1
330
0
100
AcDbSymbolTable
 70
     1
  0
BLOCK_RECORD
  5
1F
330
1
100
AcDbSymbolTableRecord
100
AcDbBlockTableRecord
  2
*Model_Space
340
22
 70
     0
280
     1
281
     0
  0
BLOCK_RECORD
  5
1B
330
1
100
AcDbSymbolTableRecord
100
AcDbBlockTableRecord
  2
*Paper_Space
340
1E
 70
     0
280
     1
281
     0
  0
ENDTAB
  0
ENDSEC
  0
SECTION
  2
BLOCKS
  0
BLOCK
  5
20
330
1F
100
AcDbEntity
  8
0
100
AcDbBlockBegin
  2
*Model_Space
 70
     0
 10
0.0
 20
0.0
 30
0.0
  3
*Model_Space
  1

  0
ENDBLK
  5
21
330
1F
100
AcDbEntity
  8
0
100
AcDbBlockEnd
  0
BLOCK
  5
1C
330
1B
100
AcDbEntity
 67
     1
  8
0
100
AcDbBlockBegin
  2
*Paper_Space
 70
     0
 10
0.0
 20
0.0
 30
0.0
  3
*Paper_Space
  1

  0
ENDBLK
  5
1D
330
1B
100
AcDbEntity
 67
     1
  8
0
100
AcDbBlockEnd
  0
ENDSEC
  0
SECTION
  2
ENTITIES
  0
VIEWPORT
  5
88
330
1B
100
AcDbEntity
 67
     1
  8
0
100
AcDbViewport
 10
140.530726
 20
103.64068
 30
0.0
 40
299.41760952
 41
247.1533369854889
 68
     1
 69
     1
 12
140.530726
 22
103.64068
 13
0.0
 23
0.0
 14
5.0
 24
5.0
 15
5.0
 25
5.0
 16
0.0
 26
0.0
 36
1.0
 17
0.0
 27
0.0
 37
0.0
 42
50.0
 43
0.0
 44
0.0
 45
247.1533369854889
 50
0.0
 51
0.0
 72
  1000
 90
    32800
  1

281
     0
 71
     1
 74
     0
110
0.0
120
0.0
130
0.0
111
1.0
121
0.0
131
0.0
112
0.0
122
1.0
132
0.0
 79
     0
146
0.0
170
     0
 61
     5
292
     1
282
     1
141
0.0
142
0.0
 63
   256
  0
VIEWPORT
  5
89
330
1B
100
AcDbEntity
 67
     1
  8
0
  6
Continuous
 62
     7
100
AcDbViewport
 10
140.916692
 20
103.272084
 30
0.0
 40
281.833383
 41
194.246728
 68
     2
 69
     2
 12
0.0000485354461163
 22
-0.0000301351147608
 13
0.0
 23
0.0
 14
0.5
 24
0.5
 15
0.0
 25
0.0
 16
0.0
 26
0.0
 36
1.0
 17
148.5000053928274
 27
104.9999966516539
 37
0.0
 42
50.0
 43
0.0
 44
0.0
 45
210.0000000000003
 50
0.0
 51
0.0
 72
   100
 90
   557152
  1

281
     0
 71
     1
 74
     0
110
0.0
120
0.0
130
0.0
111
1.0
121
0.0
131
0.0
112
0.0
122
1.0
132
0.0
 79
     0
146
0.0
170
     0
 61
     5
292
     1
282
     1
141
0.0
142
0.0
 63
   256
  0
POINT
  5
8A
330
1B
100
AcDbEntity
 67
     1
  8
0
  6
Continuous
 62
    18
420
  4980736
100
AcDbPoint
 10
154.782943
 20
73.046965
 30
0.0
  0
POINT
  5
8B
330
1B
100
AcDbEntity
 67
     1
  8
0
  6
Continuous
 62
    18
420
  4980736
100
AcDbPoint
 10
71.262938
 20
60.950966
 30
0.0
  0
LINE
  5
8E
102
{ACAD_XDICTIONARY
360
8C
102
}
330
1B
100
AcDbEntity
 67
     1
  8
0
  6
CENTER
 62
    18
420
  4980736
100
AcDbLine
 10
53.982938
 20
165.206963
 30
0.0
 11
53.982938
 21
52.886965
 31
0.0
  0
LINE
  5
91
102
{ACAD_XDICTIONARY
360
8F
102
}
330
1B
100
AcDbEntity
 67
     1
  8
0
  6
Continuous
 62
    18
420
  4980736
100
AcDbLine
 10
42.030933
 20
58.646965
 30
0.0
 11
65.934942
 21
58.646965
 31
0.0
  0
LINE
  5
94
102
{ACAD_XDICTIONARY
360
92
102
}
330
1B
100
AcDbEntity
 67
     1
  8
0
  6
Continuous
 62
    18
420
  4980736
100
AcDbLine
 10
36.702938
 20
125.462965
 30
0.0
 11
36.702938
 21
60.950966
 31
0.0
  0
LINE
  5
97
102
{ACAD_XDICTIONARY
360
95
102
}
330
1B
100
AcDbEntity
 67
     1
  8
0
  6
Continuous
 62
    18
420
  4980736
100
AcDbLine
 10
40.734942
 20
159.446963
 30
0.0
 11
67.230944
 21
159.446963
 31
0.0
  0
LINE
  5
9A
102
{ACAD_XDICTIONARY
360
98
102
}
330
1B
100
AcDbEntity
 67
     1
  8
0
  6
Continuous
 62
    18
420
  4980736
100
AcDbLine
 10
36.414942
 20
132.086963
 30
0.0
 11
71.550944
 21
132.086963
 31
0.0
  0
LINE
  5
9D
102
{ACAD_XDICTIONARY
360
9B
102
}
330
1B
100
AcDbEntity
 67
     1
  8
0
  6
Continuous
 62
    18
420
  4980736
100
AcDbLine
 10
38.142938
 20
134.966963
 30
0.0
 11
69.822938
 21
134.966963
 31
0.0
  0
LINE
  5
A0
102
{ACAD_XDICTIONARY
360
9E
102
}
330
1B
100
AcDbEntity
 67
     1
  8
0
  6
Continuous
 62
    18
420
  4980736
100
AcDbLine
 10
69.822938
 20
134.966963
 30
0.0
 11
71.262938
 21
132.086963
 31
0.0
  0
LINE
  5
A3
102
{ACAD_XDICTIONARY
360
A1
102
}
330
1B
100
AcDbEntity
 67
     1
  8
0
  6
Continuous
 62
    18
420
  4980736
100
AcDbLine
 10
36.702938
 20
132.086963
 30
0.0
 11
38.142938
 21
134.966963
 31
0.0
  0
LINE
  5
A6
102
{ACAD_XDICTIONARY
360
A4
102
}
330
1B
100
AcDbEntity
 67
     1
  8
0
  6
Continuous
 62
    18
420
  4980736
100
AcDbLine
 10
40.734942
 20
142.166963
 30
0.0
 11
67.230944
 21
142.166963
 31
0.0
  0
LINE
  5
A9
102
{ACAD_XDICTIONARY
360
A7
102
}
330
1B
100
AcDbEntity
 67
     1
  8
0
  6
Continuous
 62
    18
420
  4980736
100
AcDbLine
 10
39.294942
 20
136.406963
 30
0.0
 11
39.294942
 21
134.966963
 31
0.0
  0
LINE
  5
AC
102
{ACAD_XDICTIONARY
360
AA
102
}
330
1B
100
AcDbEntity
 67
     1
  8
0
  6
Continuous
 62
    18
420
  4980736
100
AcDbLine
 10
68.670944
 20
136.406963
 30
0.0
 11
68.670944
 21
134.966963
 31
0.0
  0
LINE
  5
AF
102
{ACAD_XDICTIONARY
360
AD
102
}
330
1B
100
AcDbEntity
 67
     1
  8
0
  6
Continuous
 62
    18
420
  4980736
100
AcDbLine
 10
40.734942
 20
159.446963
 30
0.0
 11
40.734942
 21
142.166963
 31
0.0
  0
LINE
  5
B2
102
{ACAD_XDICTIONARY
360
B0
102
}
330
1B
100
AcDbEntity
 67
     1
  8
0
  6
Continuous
 62
    18
420
  4980736
100
AcDbLine
 10
67.230944
 20
159.446963
 30
0.0
 11
67.230944
 21
142.166963
 31
0.0
  0
LINE
  5
B5
102
{ACAD_XDICTIONARY
360
B3
102
}
330
1B
100
AcDbEntity
 67
     1
  8
0
  6
Continuous
 62
    18
420
  4980736
100
AcDbLine
 10
39.294942
 20
136.406963
 30
0.0
 11
68.670944
 21
136.406963
 31
0.0
  0
LINE
  5
B8
102
{ACAD_XDICTIONARY
360
B6
102
}
330
1B
100
AcDbEntity
 67
     1
  8
0
  6
Continuous
 62
    18
420
  4980736
100
AcDbLine
 10
67.230944
 20
142.166963
 30
0.0
 11
68.670944
 21
136.406963
 31
0.0
  0
LINE
  5
BB
102
{ACAD_XDICTIONARY
360
B9
102
}
330
1B
100
AcDbEntity
 67
     1
  8
0
  6
Continuous
 62
    18
420
  4980736
100
AcDbLine
 10
40.734942
 20
142.166963
 30
0.0
 11
39.294942
 21
136.406963
 31
0.0
  0
LINE
  5
BE
102
{ACAD_XDICTIONARY
360
BC
102
}
330
1B
100
AcDbEntity
 67
     1
  8
0
  6
CENTER
 62
    18
420
  4980736
100
AcDbLine
 10
68.382938
 20
73.046965
 30
0.0
 11
85.662938
 21
73.046965
 31
0.0
  0
LINE
  5
C1
102
{ACAD_XDICTIONARY
360
BF
102
}
330
1B
100
AcDbEntity
 67
     1
  8
0
  6
Continuous
 62
    18
420
  4980736
100
AcDbLine
 10
36.702938
 20
60.950966
 30
0.0
 11
42.030933
 21
60.950966
 31
0.0
  0
LINE
  5
C4
102
{ACAD_XDICTIONARY
360
C2
102
}
330
1B
100
AcDbEntity
 67
     1
  8
0
  6
Continuous
 62
    18
420
  4980736
100
AcDbLine
 10
42.030933
 20
74.486965
 30
0.0
 11
42.030933
 21
71.311049
 31
0.0
  0
LINE
  5
C7
102
{ACAD_XDICTIONARY
360
C5
102
}
330
1B
100
AcDbEntity
 67
     1
  8
0
  6
Continuous
 62
    18
420
  4980736
100
AcDbLine
 10
65.934942
 20
60.950966
 30
0.0
 11
65.934942
 21
58.646965
 31
0.0
  0
LINE
  5
CA
102
{ACAD_XDICTIONARY
360
C8
102
}
330
1B
100
AcDbEntity
 67
     1
  8
0
  6
Continuous
 62
    18
420
  4980736
100
AcDbLine
 10
36.990933
 20
126.326968
 30
0.0
 11
70.974942
 21
126.326968
 31
0.0
  0
LINE
  5
CD
102
{ACAD_XDICTIONARY
360
CB
102
}
330
1B
100
AcDbEntity
 67
     1
  8
0
  6
Continuous
 62
    18
420
  4980736
100
AcDbLine
 10
36.702938
 20
125.462965
 30
0.0
 11
71.262938
 21
125.462965
 31
0.0
  0
LINE
  5
D0
102
{ACAD_XDICTIONARY
360
CE
102
}
330
1B
100
AcDbEntity
 67
     1
  8
0
  6
Continuous
 62
    18
420
  4980736
100
AcDbLine
 10
36.414942
 20
127.190972
 30
0.0
 11
71.550944
 21
127.190972
 31
0.0
  0
LINE
  5
D3
102
{ACAD_XDICTIONARY
360
D1
102
}
330
1B
100
AcDbEntity
 67
     1
  8
0
  6
Continuous
 62
    18
420
  4980736
100
AcDbLine
 10
71.550944
 20
132.086963
 30
0.0
 11
71.550944
 21
127.190972
 31
0.0
  0
LINE
  5
D6
102
{ACAD_XDICTIONARY
360
D4
102
}
330
1B
100
AcDbEntity
 67
     1
  8
0
  6
Continuous
 62
    18
420
  4980736
100
AcDbLine
 10
36.414942
 20
132.086963
 30
0.0
 11
36.414942
 21
127.190972
 31
0.0
  0
LINE
  5
D9
102
{ACAD_XDICTIONARY
360
D7
102
}
330
1B
100
AcDbEntity
 67
     1
  8
0
  6
Continuous
 62
    18
420
  4980736
100
AcDbLine
 10
71.550944
 20
127.190972
 30
0.0
 11
70.974942
 21
126.326968
 31
0.0
  0
LINE
  5
DC
102
{ACAD_XDICTIONARY
360
DA
102
}
330
1B
100
AcDbEntity
 67
     1
  8
0
  6
Continuous
 62
    18
420
  4980736
100
AcDbLine
 10
70.974942
 20
126.326968
 30
0.0
 11
71.262938
 21
125.462965
 31
0.0
  0
LINE
  5
DF
102
{ACAD_XDICTIONARY
360
DD
102
}
330
1B
100
AcDbEntity
 67
     1
  8
0
  6
Continuous
 62
    18
420
  4980736
100
AcDbLine
 10
36.414942
 20
127.190972
 30
0.0
 11
36.990933
 21
126.326968
 31
0.0
  0
LINE
  5
E2
102
{ACAD_XDICTIONARY
360
E0
102
}
330
1B
100
AcDbEntity
 67
     1
  8
0
  6
Continuous
 62
    18
420
  4980736
100
AcDbLine
 10
36.990933
 20
126.326968
 30
0.0
 11
36.702938
 21
125.462965
 31
0.0
  0
LINE
  5
E5
102
{ACAD_XDICTIONARY
360
E3
102
}
330
1B
100
AcDbEntity
 67
     1
  8
0
  6
Continuous
 62
    18
420
  4980736
100
AcDbLine
 10
137.502943
 20
125.462965
 30
0.0
 11
137.502943
 21
60.950966
 31
0.0
  0
LINE
  5
E8
102
{ACAD_XDICTIONARY
360
E6
102
}
330
1B
100
AcDbEntity
 67
     1
  8
0
  6
Continuous
 62
    18
420
  4980736
100
AcDbLine
 10
170.622943
 20
134.966963
 30
0.0
 11
172.062943
 21
132.086963
 31
0.0
  0
LINE
  5
EB
102
{ACAD_XDICTIONARY
360
E9
102
}
330
1B
100
AcDbEntity
 67
     1
  8
0
  6
Continuous
 62
    18
420
  4980736
100
AcDbLine
 10
137.502943
 20
132.086963
 30
0.0
 11
138.942943
 21
134.966963
 31
0.0
  0
LINE
  5
EE
102
{ACAD_XDICTIONARY
360
EC
102
}
330
1B
100
AcDbEntity
 67
     1
  8
0
  6
Continuous
 62
    18
420
  4980736
100
AcDbLine
 10
141.822943
 20
159.446963
 30
0.0
 11
167.742943
 21
159.446963
 31
0.0
  0
LINE
  5
F1
102
{ACAD_XDICTIONARY
360
EF
102
}
330
1B
100
AcDbEntity
 67
     1
  8
0
  6
Continuous
 62
    18
420
  4980736
100
AcDbLine
 10
172.062943
 20
125.462965
 30
0.0
 11
172.062943
 21
60.950966
 31
0.0
  0
LINE
  5
F4
102
{ACAD_XDICTIONARY
360
F2
102
}
330
1B
100
AcDbEntity
 67
     1
  8
0
  6
Continuous
 62
    18
420
  4980736
100
AcDbLine
 10
142.830944
 20
58.646965
 30
0.0
 11
166.734942
 21
58.646965
 31
0.0
  0
LINE
  5
F7
102
{ACAD_XDICTIONARY
360
F5
102
}
330
1B
100
AcDbEntity
 67
     1
  8
0
  6
CENTER
 62
    18
420
  4980736
100
AcDbLine
 10
154.782943
 20
165.206963
 30
0.0
 11
154.782943
 21
52.886965
 31
0.0
  0
LINE
  5
FA
102
{ACAD_XDICTIONARY
360
F8
102
}
330
1B
100
AcDbEntity
 67
     1
  8
0
  6
Continuous
 62
    18
420
  4980736
100
AcDbLine
 10
138.942943
 20
134.966963
 30
0.0
 11
170.622943
 21
134.966963
 31
0.0
  0
LINE
  5
FD
102
{ACAD_XDICTIONARY
360
FB
102
}
330
1B
100
AcDbEntity
 67
     1
  8
0
  6
Continuous
 62
    18
420
  4980736
100
AcDbLine
 10
137.214942
 20
132.086963
 30
0.0
 11
172.350944
 21
132.086963
 31
0.0
  0
LINE
  5
100
102
{ACAD_XDICTIONARY
360
FE
102
}
330
1B
100
AcDbEntity
 67
     1
  8
0
  6
Continuous
 62
    18
420
  4980736
100
AcDbLine
 10
140.382943
 20
136.406963
 30
0.0
 11
140.382943
 21
134.966963
 31
0.0
  0
LINE
  5
103
102
{ACAD_XDICTIONARY
360
101
102
}
330
1B
100
AcDbEntity
 67
     1
  8
0
  6
Continuous
 62
    18
420
  4980736
100
AcDbLine
 10
141.822943
 20
142.166963
 30
0.0
 11
167.742943
 21
142.166963
 31
0.0
  0
LINE
  5
106
102
{ACAD_XDICTIONARY
360
104
102
}
330
1B
100
AcDbEntity
 67
     1
  8
0
  6
Continuous
 62
    18
420
  4980736
100
AcDbLine
 10
169.182943
 20
136.406963
 30
0.0
 11
169.182943
 21
134.966963
 31
0.0
  0
LINE
  5
109
102
{ACAD_XDICTIONARY
360
107
102
}
330
1B
100
AcDbEntity
 67
     1
  8
0
  6
Continuous
 62
    18
420
  4980736
100
AcDbLine
 10
167.742943
 20
159.446963
 30
0.0
 11
167.742943
 21
142.166963
 31
0.0
  0
LINE
  5
10C
102
{ACAD_XDICTIONARY
360
10A
102
}
330
1B
100
AcDbEntity
 67
     1
  8
0
  6
Continuous
 62
    18
420
  4980736
100
AcDbLine
 10
141.822943
 20
159.446963
 30
0.0
 11
141.822943
 21
142.166963
 31
0.0
  0
LINE
  5
10F
102
{ACAD_XDICTIONARY
360
10D
102
}
330
1B
100
AcDbEntity
 67
     1
  8
0
  6
Continuous
 62
    18
420
  4980736
100
AcDbLine
 10
140.382943
 20
136.406963
 30
0.0
 11
169.182943
 21
136.406963
 31
0.0
  0
LINE
  5
112
102
{ACAD_XDICTIONARY
360
110
102
}
330
1B
100
AcDbEntity
 67
     1
  8
0
  6
Continuous
 62
    18
420
  4980736
100
AcDbLine
 10
167.742943
 20
142.166963
 30
0.0
 11
169.182943
 21
136.406963
 31
0.0
  0
LINE
  5
115
102
{ACAD_XDICTIONARY
360
113
102
}
330
1B
100
AcDbEntity
 67
     1
  8
0
  6
Continuous
 62
    18
420
  4980736
100
AcDbLine
 10
141.822943
 20
142.166963
 30
0.0
 11
140.382943
 21
136.406963
 31
0.0
  0
LINE
  5
118
102
{ACAD_XDICTIONARY
360
116
102
}
330
1B
100
AcDbEntity
 67
     1
  8
0
  6
Continuous
 62
    18
420
  4980736
100
AcDbLine
 10
137.502943
 20
60.950966
 30
0.0
 11
172.062943
 21
60.950966
 31
0.0
  0
LINE
  5
11B
102
{ACAD_XDICTIONARY
360
119
102
}
330
1B
100
AcDbEntity
 67
     1
  8
0
  6
Continuous
 62
    18
420
  4980736
100
AcDbLine
 10
172.350944
 20
132.086963
 30
0.0
 11
172.350944
 21
127.190972
 31
0.0
  0
LINE
  5
11E
102
{ACAD_XDICTIONARY
360
11C
102
}
330
1B
100
AcDbEntity
 67
     1
  8
0
  6
Continuous
 62
    18
420
  4980736
100
AcDbLine
 10
142.830944
 20
60.950966
 30
0.0
 11
142.830944
 21
58.646965
 31
0.0
  0
LINE
  5
121
102
{ACAD_XDICTIONARY
360
11F
102
}
330
1B
100
AcDbEntity
 67
     1
  8
0
  6
Continuous
 62
    18
420
  4980736
100
AcDbLine
 10
137.214942
 20
132.086963
 30
0.0
 11
137.214942
 21
127.190972
 31
0.0
  0
LINE
  5
124
102
{ACAD_XDICTIONARY
360
122
102
}
330
1B
100
AcDbEntity
 67
     1
  8
0
  6
Continuous
 62
    18
420
  4980736
100
AcDbLine
 10
166.734942
 20
60.950966
 30
0.0
 11
166.734942
 21
58.646965
 31
0.0
  0
LINE
  5
127
102
{ACAD_XDICTIONARY
360
125
102
}
330
1B
100
AcDbEntity
 67
     1
  8
0
  6
Continuous
 62
    18
420
  4980736
100
AcDbLine
 10
137.214942
 20
127.190972
 30
0.0
 11
172.350944
 21
127.190972
 31
0.0
  0
LINE
  5
12A
102
{ACAD_XDICTIONARY
360
128
102
}
330
1B
100
AcDbEntity
 67
     1
  8
0
  6
Continuous
 62
    18
420
  4980736
100
AcDbLine
 10
137.502943
 20
125.462965
 30
0.0
 11
172.062943
 21
125.462965
 31
0.0
  0
LINE
  5
12D
102
{ACAD_XDICTIONARY
360
12B
102
}
330
1B
100
AcDbEntity
 67
     1
  8
0
  6
Continuous
 62
    18
420
  4980736
100
AcDbLine
 10
137.790944
 20
126.326968
 30
0.0
 11
171.774942
 21
126.326968
 31
0.0
  0
LINE
  5
130
102
{ACAD_XDICTIONARY
360
12E
102
}
330
1B
100
AcDbEntity
 67
     1
  8
0
  6
Continuous
 62
    18
420
  4980736
100
AcDbLine
 10
172.350944
 20
127.190972
 30
0.0
 11
171.774942
 21
126.326968
 31
0.0
  0
LINE
  5
133
102
{ACAD_XDICTIONARY
360
131
102
}
330
1B
100
AcDbEntity
 67
     1
  8
0
  6
Continuous
 62
    18
420
  4980736
100
AcDbLine
 10
171.774942
 20
126.326968
 30
0.0
 11
172.062943
 21
125.462965
 31
0.0
  0
LINE
  5
136
102
{ACAD_XDICTIONARY
360
134
102
}
330
1B
100
AcDbEntity
 67
     1
  8
0
  6
Continuous
 62
    18
420
  4980736
100
AcDbLine
 10
137.214942
 20
127.190972
 30
0.0
 11
137.790944
 21
126.326968
 31
0.0
  0
LINE
  5
139
102
{ACAD_XDICTIONARY
360
137
102
}
330
1B
100
AcDbEntity
 67
     1
  8
0
  6
Continuous
 62
    18
420
  4980736
100
AcDbLine
 10
137.790944
 20
126.326968
 30
0.0
 11
137.502943
 21
125.462965
 31
0.0
  0
LINE
  5
13C
102
{ACAD_XDICTIONARY
360
13A
102
}
330
1B
100
AcDbEntity
 67
     1
  8
0
  6
CENTER
 62
    18
420
  4980736
100
AcDbLine
 10
143.982943
 20
73.046965
 30
0.0
 11
165.582943
 21
73.046965
 31
0.0
  0
LINE
  5
13F
102
{ACAD_XDICTIONARY
360
13D
102
}
330
1B
100
AcDbEntity
 67
     1
  8
0
  6
Continuous
 62
    18
420
  4980736
100
AcDbLine
 10
37.134942
 20
83.78333
 30
0.0
 11
37.134942
 21
65.653151
 31
0.0
  0
LINE
  5
142
102
{ACAD_XDICTIONARY
360
140
102
}
330
1B
100
AcDbEntity
 67
     1
  8
0
  6
Continuous
 62
    18
420
  4980736
100
AcDbLine
 10
41.454942
 20
82.091836
 30
0.0
 11
41.454942
 21
75.062965
 31
0.0
  0
LINE
  5
145
102
{ACAD_XDICTIONARY
360
143
102
}
330
1B
100
AcDbEntity
 67
     1
  8
0
  6
Continuous
 62
    18
420
  4980736
100
AcDbLine
 10
42.318951
 20
74.486965
 30
0.0
 11
42.318951
 21
58.646965
 31
0.0
  0
LINE
  5
148
102
{ACAD_XDICTIONARY
360
146
102
}
330
1B
100
AcDbEntity
 67
     1
  8
0
  6
Continuous
 62
    18
420
  4980736
100
AcDbLine
 10
41.742938
 20
74.486965
 30
0.0
 11
42.318951
 21
74.486965
 31
0.0
  0
LINE
  5
14B
102
{ACAD_XDICTIONARY
360
149
102
}
330
1B
100
AcDbEntity
 67
     1
  8
0
  6
Continuous
 62
    18
420
  4980736
100
AcDbLine
 10
41.166947
 20
82.188329
 30
0.0
 11
41.166947
 21
75.062965
 31
0.0
  0
LINE
  5
14E
102
{ACAD_XDICTIONARY
360
14C
102
}
330
1B
100
AcDbEntity
 67
     1
  8
0
  6
Continuous
 62
    18
420
  4980736
100
AcDbLine
 10
45.614399
 20
60.950966
 30
0.0
 11
71.262938
 21
60.950966
 31
0.0
  0
LINE
  5
151
102
{ACAD_XDICTIONARY
360
14F
102
}
330
1B
100
AcDbEntity
 67
     1
  8
0
  6
Continuous
 62
    18
420
  4980736
100
AcDbLine
 10
37.134942
 20
65.653151
 30
0.0
 11
37.134942
 21
60.950966
 31
0.0
  0
LINE
  5
154
102
{ACAD_XDICTIONARY
360
152
102
}
330
1B
100
AcDbEntity
 67
     1
  8
0
  6
Continuous
 62
    18
420
  4980736
100
AcDbLine
 10
42.030933
 20
71.311049
 30
0.0
 11
42.030933
 21
58.646965
 31
0.0
  0
LINE
  5
157
102
{ACAD_XDICTIONARY
360
155
102
}
330
1B
100
AcDbEntity
 67
     1
  8
0
  6
Continuous
 62
    18
420
  4980736
100
AcDbLine
 10
42.606947
 20
74.198964
 30
0.0
 11
42.606947
 21
73.046965
 31
0.0
  0
LINE
  5
15A
102
{ACAD_XDICTIONARY
360
158
102
}
330
1B
100
AcDbEntity
 67
     1
  8
0
  6
Continuous
 62
    18
420
  4980736
100
AcDbLine
 10
42.894942
 20
74.198964
 30
0.0
 11
42.894942
 21
73.046965
 31
0.0
  0
LINE
  5
15D
102
{ACAD_XDICTIONARY
360
15B
102
}
330
1B
100
AcDbEntity
 67
     1
  8
0
  6
Continuous
 62
    18
420
  4980736
100
AcDbLine
 10
41.742938
 20
74.774967
 30
0.0
 11
42.318951
 21
74.774967
 31
0.0
  0
LINE
  5
160
102
{ACAD_XDICTIONARY
360
15E
102
}
330
1B
100
AcDbEntity
 67
     1
  8
0
  6
Continuous
 62
    18
420
  4980736
100
AcDbLine
 10
42.606947
 20
73.046965
 30
0.0
 11
42.894942
 21
73.046965
 31
0.0
  0
LINE
  5
163
102
{ACAD_XDICTIONARY
360
161
102
}
330
1B
100
AcDbEntity
 67
     1
  8
0
  6
Continuous
 62
    18
420
  4980736
100
AcDbLine
 10
40.302938
 20
82.454132
 30
0.0
 11
40.302938
 21
74.486965
 31
0.0
  0
LINE
  5
166
102
{ACAD_XDICTIONARY
360
164
102
}
330
1B
100
AcDbEntity
 67
     1
  8
0
  6
Continuous
 62
    18
420
  4980736
100
AcDbLine
 10
40.014942
 20
82.544138
 30
0.0
 11
40.014942
 21
74.486965
 31
0.0
  0
LINE
  5
169
102
{ACAD_XDICTIONARY
360
167
102
}
330
1B
100
AcDbEntity
 67
     1
  8
0
  6
Continuous
 62
    18
420
  4980736
100
AcDbLine
 10
40.014942
 20
74.486965
 30
0.0
 11
40.302938
 21
74.486965
 31
0.0
  0
LINE
  5
16C
102
{ACAD_XDICTIONARY
360
16A
102
}
330
1B
100
AcDbEntity
 67
     1
  8
0
  6
Continuous
 62
    18
420
  4980736
100
AcDbLine
 10
53.982938
 20
21.206965
 30
0.0
 11
53.982938
 21
29.846965
 31
0.0
  0
LINE
  5
16F
102
{ACAD_XDICTIONARY
360
16D
102
}
330
1B
100
AcDbEntity
 67
     1
  8
0
  6
Continuous
 62
    18
420
  4980736
100
AcDbLine
 10
53.982938
 20
21.206965
 30
0.0
 11
53.262938
 21
23.366965
 31
0.0
  0
LINE
  5
172
102
{ACAD_XDICTIONARY
360
170
102
}
330
1B
100
AcDbEntity
 67
     1
  8
0
  6
Continuous
 62
    18
420
  4980736
100
AcDbLine
 10
53.982938
 20
21.206965
 30
0.0
 11
54.702938
 21
23.366965
 31
0.0
  0
LINE
  5
175
102
{ACAD_XDICTIONARY
360
173
102
}
330
1B
100
AcDbEntity
 67
     1
  8
0
  6
Continuous
 62
    18
420
  4980736
100
AcDbLine
 10
53.982938
 20
21.206965
 30
0.0
 11
53.982938
 21
29.846965
 31
0.0
  0
LINE
  5
178
102
{ACAD_XDICTIONARY
360
176
102
}
330
1B
100
AcDbEntity
 67
     1
  8
0
  6
Continuous
 62
    18
420
  4980736
100
AcDbLine
 10
111.582938
 20
73.046965
 30
0.0
 11
102.942938
 21
73.046965
 31
0.0
  0
LINE
  5
17B
102
{ACAD_XDICTIONARY
360
179
102
}
330
1B
100
AcDbEntity
 67
     1
  8
0
  6
Continuous
 62
    18
420
  4980736
100
AcDbLine
 10
111.582938
 20
73.046965
 30
0.0
 11
109.422938
 21
72.326965
 31
0.0
  0
LINE
  5
17E
102
{ACAD_XDICTIONARY
360
17C
102
}
330
1B
100
AcDbEntity
 67
     1
  8
0
  6
Continuous
 62
    18
420
  4980736
100
AcDbLine
 10
111.582938
 20
73.046965
 30
0.0
 11
109.422938
 21
73.766965
 31
0.0
  0
LINE
  5
181
102
{ACAD_XDICTIONARY
360
17F
102
}
330
1B
100
AcDbEntity
 67
     1
  8
0
  6
Continuous
 62
    18
420
  4980736
100
AcDbLine
 10
111.582938
 20
73.046965
 30
0.0
 11
102.942938
 21
73.046965
 31
0.0
  0
LINE
  5
184
102
{ACAD_XDICTIONARY
360
182
102
}
330
1B
100
AcDbEntity
 67
     1
  8
0
  6
Continuous
 62
    18
420
  4980736
100
AcDbLine
 10
41.166947
 20
78.945278
 30
0.0
 11
33.755064
 21
84.084135
 31
0.0
  0
LINE
  5
187
102
{ACAD_XDICTIONARY
360
185
102
}
330
1B
100
AcDbEntity
 67
     1
  8
0
  6
Continuous
 62
    18
420
  4980736
100
AcDbLine
 10
41.166947
 20
78.945278
 30
0.0
 11
38.981612
 21
79.584297
 31
0.0
  0
LINE
  5
18A
102
{ACAD_XDICTIONARY
360
188
102
}
330
1B
100
AcDbEntity
 67
     1
  8
0
  6
Continuous
 62
    18
420
  4980736
100
AcDbLine
 10
41.166947
 20
78.945278
 30
0.0
 11
39.802093
 21
80.76769
 31
0.0
  0
LINE
  5
18D
102
{ACAD_XDICTIONARY
360
18B
102
}
330
1B
100
AcDbEntity
 67
     1
  8
0
  6
Continuous
 62
    18
420
  4980736
100
AcDbLine
 10
41.166947
 20
78.945278
 30
0.0
 11
33.755064
 21
84.084135
 31
0.0
  0
LINE
  5
190
102
{ACAD_XDICTIONARY
360
18E
102
}
330
1B
100
AcDbEntity
 67
     1
  8
0
  6
Continuous
 62
    18
420
  4980736
100
AcDbLine
 10
33.755064
 20
84.084135
 30
0.0
 11
14.006106
 21
84.084135
 31
0.0
  0
LINE
  5
193
102
{ACAD_XDICTIONARY
360
191
102
}
330
1B
100
AcDbEntity
 67
     1
  8
0
  6
Continuous
 62
    18
420
  4980736
100
AcDbLine
 10
71.262938
 20
125.462965
 30
0.0
 11
71.262938
 21
82.982965
 31
0.0
  0
LINE
  5
196
102
{ACAD_XDICTIONARY
360
194
102
}
330
1B
100
AcDbEntity
 67
     1
  8
0
  6
CENTER
 62
    18
420
  4980736
100
AcDbLine
 10
68.395747
 20
73.363374
 30
0.0
 11
85.652061
 21
72.45901
 31
0.0
  0
LINE
  5
199
102
{ACAD_XDICTIONARY
360
197
102
}
330
1B
100
AcDbEntity
 67
     1
  8
0
  6
Continuous
 62
    18
420
  4980736
100
AcDbLine
 10
74.812279
 20
80.236979
 30
0.0
 11
83.152836
 21
79.799871
 31
0.0
  0
LINE
  5
19C
102
{ACAD_XDICTIONARY
360
19A
102
}
330
1B
100
AcDbEntity
 67
     1
  8
0
  6
Continuous
 62
    18
420
  4980736
100
AcDbLine
 10
74.05865
 20
65.856713
 30
0.0
 11
82.399196
 21
65.419606
 31
0.0
  0
LINE
  5
19F
102
{ACAD_XDICTIONARY
360
19D
102
}
330
1B
100
AcDbEntity
 67
     1
  8
0
  6
Continuous
 62
    18
420
  4980736
100
AcDbLine
 10
83.152836
 20
79.799871
 30
0.0
 11
82.399196
 21
65.419606
 31
0.0
  0
LINE
  5
1A2
102
{ACAD_XDICTIONARY
360
1A0
102
}
330
1B
100
AcDbEntity
 67
     1
  8
0
  6
Continuous
 62
    18
420
  4980736
100
AcDbLine
 10
74.430944
 20
80.390966
 30
0.0
 11
74.430944
 21
65.702965
 31
0.0
  0
LINE
  5
1A5
102
{ACAD_XDICTIONARY
360
1A3
102
}
330
1B
100
AcDbEntity
 67
     1
  8
0
  6
Continuous
 62
    18
420
  4980736
100
AcDbLine
 10
73.27894
 20
80.966968
 30
0.0
 11
73.854942
 21
80.966968
 31
0.0
  0
LINE
  5
1A8
102
{ACAD_XDICTIONARY
360
1A6
102
}
330
1B
100
AcDbEntity
 67
     1
  8
0
  6
Continuous
 62
    18
420
  4980736
100
AcDbLine
 10
73.27894
 20
65.126965
 30
0.0
 11
73.854942
 21
65.126965
 31
0.0
  0
LINE
  5
1AB
102
{ACAD_XDICTIONARY
360
1A9
102
}
330
1B
100
AcDbEntity
 67
     1
  8
0
  6
Continuous
 62
    18
420
  4980736
100
AcDbLine
 10
71.262938
 20
63.110966
 30
0.0
 11
71.262938
 21
60.950966
 31
0.0
  0
CIRCLE
  5
1AE
102
{ACAD_XDICTIONARY
360
1AC
102
}
330
1B
100
AcDbEntity
 67
     1
  8
0
  6
Continuous
 62
    18
420
  4980736
100
AcDbCircle
 10
154.782943
 20
73.046965
 30
0.0
 40
7.199999999999989
  0
CIRCLE
  5
1B1
102
{ACAD_XDICTIONARY
360
1AF
102
}
330
1B
100
AcDbEntity
 67
     1
  8
0
  6
Continuous
 62
    18
420
  4980736
100
AcDbCircle
 10
154.782943
 20
73.046965
 30
0.0
 40
6.768000999999998
  0
CIRCLE
  5
1B4
102
{ACAD_XDICTIONARY
360
1B2
102
}
330
1B
100
AcDbEntity
 67
     1
  8
0
  6
Continuous
 62
    18
420
  4980736
100
AcDbCircle
 10
154.782943
 20
73.046965
 30
0.0
 40
7.919999999999987
  0
ARC
  5
1B7
102
{ACAD_XDICTIONARY
360
1B5
102
}
330
1B
100
AcDbEntity
 67
     1
  8
0
  6
Continuous
 62
    18
420
  4980736
100
AcDbCircle
 10
41.742938
 20
75.062965
 30
0.0
 40
0.2879999999999967
100
AcDbArc
 50
180.0
 51
270.0000039999999
  0
ARC
  5
1BA
102
{ACAD_XDICTIONARY
360
1B8
102
}
330
1B
100
AcDbEntity
 67
     1
  8
0
  6
Continuous
 62
    18
420
  4980736
100
AcDbCircle
 10
41.742938
 20
75.062965
 30
0.0
 40
0.575999999999997
100
AcDbArc
 50
180.0
 51
269.9999969999998
  0
ARC
  5
1BD
102
{ACAD_XDICTIONARY
360
1BB
102
}
330
1B
100
AcDbEntity
 67
     1
  8
0
  6
Continuous
 62
    18
420
  4980736
100
AcDbCircle
 10
42.318951
 20
74.198964
 30
0.0
 40
0.2879999999999967
100
AcDbArc
 50
0.0
 51
90.00000299999954
  0
ARC
  5
1C0
102
{ACAD_XDICTIONARY
360
1BE
102
}
330
1B
100
AcDbEntity
 67
     1
  8
0
  6
Continuous
 62
    18
420
  4980736
100
AcDbCircle
 10
42.318951
 20
74.198964
 30
0.0
 40
0.5759999999999934
100
AcDbArc
 50
0.0
 51
90.00000300000025
  0
ARC
  5
1C3
102
{ACAD_XDICTIONARY
360
1C1
102
}
330
1B
100
AcDbEntity
 67
     1
  8
0
  6
Continuous
 62
    18
420
  4980736
100
AcDbCircle
 10
73.27894
 20
82.982965
 30
0.0
 40
2.016000000000005
100
AcDbArc
 50
180.0
 51
269.9999969999998
  0
ARC
  5
1C6
102
{ACAD_XDICTIONARY
360
1C4
102
}
330
1B
100
AcDbEntity
 67
     1
  8
0
  6
Continuous
 62
    18
420
  4980736
100
AcDbCircle
 10
73.27894
 20
63.110966
 30
0.0
 40
2.016000000000002
100
AcDbArc
 50
90.0
 51
180.000009
  0
ARC
  5
1C9
102
{ACAD_XDICTIONARY
360
1C7
102
}
330
1B
100
AcDbEntity
 67
     1
  8
0
  6
Continuous
 62
    18
420
  4980736
100
AcDbCircle
 10
73.854942
 20
80.390966
 30
0.0
 40
0.5759999999999934
100
AcDbArc
 50
0.0
 51
90.00000299999954
  0
ARC
  5
1CC
102
{ACAD_XDICTIONARY
360
1CA
102
}
330
1B
100
AcDbEntity
 67
     1
  8
0
  6
Continuous
 62
    18
420
  4980736
100
AcDbCircle
 10
73.854942
 20
65.702965
 30
0.0
 40
0.5759999999999934
100
AcDbArc
 50
270.0
 51
0.0
  0
ARC
  5
1CF
102
{ACAD_XDICTIONARY
360
1CD
102
}
330
1B
100
AcDbEntity
 67
     1
  8
0
  6
Continuous
 62
    18
420
  4980736
100
AcDbCircle
 10
49.800127
 20
109.372777
 30
0.0
 40
28.561733
100
AcDbArc
 50
242.7059539999997
 51
244.9537009999999
  0
ARC
  5
1D2
102
{ACAD_XDICTIONARY
360
1D0
102
}
330
1B
100
AcDbEntity
 67
     1
  8
0
  6
Continuous
 62
    18
420
  4980736
100
AcDbCircle
 10
55.20279
 20
120.789732
 30
0.0
 40
41.19237099999998
100
AcDbArc
 50
244.868501
 51
246.427929
  0
ARC
  5
1D5
102
{ACAD_XDICTIONARY
360
1D3
102
}
330
1B
100
AcDbEntity
 67
     1
  8
0
  6
Continuous
 62
    18
420
  4980736
100
AcDbCircle
 10
44.668764
 20
96.586019
 30
0.0
 40
14.79571
100
AcDbArc
 50
246.334697
 51
250.676163
  0
ARC
  5
1D8
102
{ACAD_XDICTIONARY
360
1D6
102
}
330
1B
100
AcDbEntity
 67
     1
  8
0
  6
Continuous
 62
    18
420
  4980736
100
AcDbCircle
 10
49.403219
 20
111.549517
 30
0.0
 40
30.486717
100
AcDbArc
 50
251.585432
 51
253.69206
  0
ARC
  5
1DB
102
{ACAD_XDICTIONARY
360
1D9
102
}
330
1B
100
AcDbEntity
 67
     1
  8
0
  6
Continuous
 62
    18
420
  4980736
100
AcDbCircle
 10
37.564247
 20
71.089825
 30
0.0
 40
11.669516
100
AcDbArc
 50
68.18060799999999
 51
73.684306
  0
ARC
  5
1DE
102
{ACAD_XDICTIONARY
360
1DC
102
}
330
1B
100
AcDbEntity
 67
     1
  8
0
  6
Continuous
 62
    18
420
  4980736
100
AcDbCircle
 10
40.248494
 20
77.768044
 30
0.0
 40
4.472046999999998
100
AcDbArc
 50
53.94329699999999
 51
68.30581200000003
  0
ARC
  5
1E1
102
{ACAD_XDICTIONARY
360
1DF
102
}
330
1B
100
AcDbEntity
 67
     1
  8
0
  6
Continuous
 62
    18
420
  4980736
100
AcDbCircle
 10
40.471155
 20
78.228539
 30
0.0
 40
3.969756000000003
100
AcDbArc
 50
36.46052700000001
 51
52.62928499999991
  0
ARC
  5
1E4
102
{ACAD_XDICTIONARY
360
1E2
102
}
330
1B
100
AcDbEntity
 67
     1
  8
0
  6
Continuous
 62
    18
420
  4980736
100
AcDbCircle
 10
39.25622
 20
77.310682
 30
0.0
 40
5.492365000000001
100
AcDbArc
 50
24.93585800000008
 51
36.62956299999995
  0
ARC
  5
1E7
102
{ACAD_XDICTIONARY
360
1E5
102
}
330
1B
100
AcDbEntity
 67
     1
  8
0
  6
Continuous
 62
    18
420
  4980736
100
AcDbCircle
 10
37.456763
 20
76.476254
 30
0.0
 40
7.475876000000008
100
AcDbArc
 50
16.325545
 51
24.92041999999998
  0
ARC
  5
1EA
102
{ACAD_XDICTIONARY
360
1E8
102
}
330
1B
100
AcDbEntity
 67
     1
  8
0
  6
Continuous
 62
    18
420
  4980736
100
AcDbCircle
 10
35.186102
 20
75.777626
 30
0.0
 40
9.851417
100
AcDbArc
 50
9.993133999999978
 51
16.51275799999996
  0
ARC
  5
1ED
102
{ACAD_XDICTIONARY
360
1EB
102
}
330
1B
100
AcDbEntity
 67
     1
  8
0
  6
Continuous
 62
    18
420
  4980736
100
AcDbCircle
 10
33.493642
 20
75.481598
 30
0.0
 40
11.56957
100
AcDbArc
 50
4.428680999999983
 51
9.982458000000026
  0
ARC
  5
1F0
102
{ACAD_XDICTIONARY
360
1EE
102
}
330
1B
100
AcDbEntity
 67
     1
  8
0
  6
Continuous
 62
    18
420
  4980736
100
AcDbCircle
 10
28.820286
 20
75.124395
 30
0.0
 40
16.256554
100
AcDbArc
 50
0.4628829999999972
 51
4.412006000000022
  0
ARC
  5
1F3
102
{ACAD_XDICTIONARY
360
1F1
102
}
330
1B
100
AcDbEntity
 67
     1
  8
0
  6
Continuous
 62
    18
420
  4980736
100
AcDbCircle
 10
15.71156
 20
75.028205
 30
0.0
 40
29.365635
100
AcDbArc
 50
358.256836
 51
0.4439270000000062
  0
ARC
  5
1F6
102
{ACAD_XDICTIONARY
360
1F4
102
}
330
1B
100
AcDbEntity
 67
     1
  8
0
  6
Continuous
 62
    18
420
  4980736
100
AcDbCircle
 10
-200.363055
 20
81.649338
 30
0.0
 40
245.541672
100
AcDbArc
 50
357.984689
 51
358.24628
  0
ARC
  5
1F9
102
{ACAD_XDICTIONARY
360
1F7
102
}
330
1B
100
AcDbEntity
 67
     1
  8
0
  6
Continuous
 62
    18
420
  4980736
100
AcDbCircle
 10
75.799262
 20
71.92594
 30
0.0
 40
30.791773
100
AcDbArc
 50
177.974075
 51
180.059868
  0
ARC
  5
1FC
102
{ACAD_XDICTIONARY
360
1FA
102
}
330
1B
100
AcDbEntity
 67
     1
  8
0
  6
Continuous
 62
    18
420
  4980736
100
AcDbCircle
 10
62.86926
 20
71.95786
 30
0.0
 40
17.861868
100
AcDbArc
 50
180.205611
 51
183.801665
  0
ARC
  5
1FF
102
{ACAD_XDICTIONARY
360
1FD
102
}
330
1B
100
AcDbEntity
 67
     1
  8
0
  6
Continuous
 62
    18
420
  4980736
100
AcDbCircle
 10
60.967465
 20
71.847144
 30
0.0
 40
15.956924
100
AcDbArc
 50
183.857754
 51
187.882211
  0
ARC
  5
202
102
{ACAD_XDICTIONARY
360
200
102
}
330
1B
100
AcDbEntity
 67
     1
  8
0
  6
Continuous
 62
    18
420
  4980736
100
AcDbCircle
 10
74.857085
 20
73.800717
 30
0.0
 40
29.98324200000001
100
AcDbArc
 50
187.940172
 51
190.081996
  0
ARC
  5
205
102
{ACAD_XDICTIONARY
360
203
102
}
330
1B
100
AcDbEntity
 67
     1
  8
0
  6
Continuous
 62
    18
420
  4980736
100
AcDbCircle
 10
223.02737
 20
99.974699
 30
0.0
 40
180.44754
100
AcDbArc
 50
190.028502
 51
190.384451
  0
ARC
  5
208
102
{ACAD_XDICTIONARY
360
206
102
}
330
1B
100
AcDbEntity
 67
     1
  8
0
  6
Continuous
 62
    18
420
  4980736
100
AcDbCircle
 10
-10.535954
 20
57.169457
 30
0.0
 40
57.00585600000002
100
AcDbArc
 50
9.261909999999995
 51
10.38828099999999
  0
ARC
  5
20B
102
{ACAD_XDICTIONARY
360
209
102
}
330
1B
100
AcDbEntity
 67
     1
  8
0
  6
Continuous
 62
    18
420
  4980736
100
AcDbCircle
 10
22.81061
 20
62.605808
 30
0.0
 40
23.219063
100
AcDbArc
 50
6.499172000000004
 51
9.265801000000009
  0
ARC
  5
20E
102
{ACAD_XDICTIONARY
360
20C
102
}
330
1B
100
AcDbEntity
 67
     1
  8
0
  6
Continuous
 62
    18
420
  4980736
100
AcDbCircle
 10
31.713311
 20
63.616111
 30
0.0
 40
14.259221
100
AcDbArc
 50
2.009596000000007
 51
6.514746999999996
  0
ARC
  5
211
102
{ACAD_XDICTIONARY
360
20F
102
}
330
1B
100
AcDbEntity
 67
     1
  8
0
  6
Continuous
 62
    18
420
  4980736
100
AcDbCircle
 10
35.513927
 20
63.759833
 30
0.0
 40
10.455908
100
AcDbArc
 50
355.812909
 51
1.952835000000037
  0
ARC
  5
214
102
{ACAD_XDICTIONARY
360
212
102
}
330
1B
100
AcDbEntity
 67
     1
  8
0
  6
Continuous
 62
    18
420
  4980736
100
AcDbCircle
 10
34.250867
 20
63.863271
 30
0.0
 40
11.72315500000001
100
AcDbArc
 50
350.278594
 51
355.759439
  0
ARC
  5
217
102
{ACAD_XDICTIONARY
360
215
102
}
330
1B
100
AcDbEntity
 67
     1
  8
0
  6
Continuous
 62
    18
420
  4980736
100
AcDbCircle
 10
31.253259
 20
64.389869
 30
0.0
 40
14.766644
100
AcDbArc
 50
345.879534
 51
350.228665
  0
ARC
  5
21A
102
{ACAD_XDICTIONARY
360
218
102
}
330
1B
100
AcDbEntity
 67
     1
  8
0
  6
Continuous
 62
    18
420
  4980736
100
AcDbCircle
 10
25.277879
 20
65.877969
 30
0.0
 40
20.92452
100
AcDbArc
 50
342.849475
 51
345.919582
  0
ARC
  5
21D
102
{ACAD_XDICTIONARY
360
21B
102
}
330
1B
100
AcDbEntity
 67
     1
  8
0
  6
Continuous
 62
    18
420
  4980736
100
AcDbCircle
 10
27.068633
 20
65.311406
 30
0.0
 40
19.046331
100
AcDbArc
 50
339.5183850000001
 51
342.889505
  0
ARC
  5
220
102
{ACAD_XDICTIONARY
360
21E
102
}
330
1B
100
AcDbEntity
 67
     1
  8
0
  6
Continuous
 62
    18
420
  4980736
100
AcDbCircle
 10
43.011785
 20
67.173166
 30
0.0
 40
4.540995999999999
100
AcDbArc
 50
102.474066
 51
108.030158
  0
ARC
  5
223
102
{ACAD_XDICTIONARY
360
221
102
}
330
1B
100
AcDbEntity
 67
     1
  8
0
  6
Continuous
 62
    18
420
  4980736
100
AcDbCircle
 10
43.07719
 20
66.960595
 30
0.0
 40
4.763373000000004
100
AcDbArc
 50
107.986834
 51
113.287451
  0
ARC
  5
226
102
{ACAD_XDICTIONARY
360
224
102
}
330
1B
100
AcDbEntity
 67
     1
  8
0
  6
Continuous
 62
    18
420
  4980736
100
AcDbCircle
 10
42.69041
 20
67.852219
 30
0.0
 40
3.791476
100
AcDbArc
 50
113.245575
 51
119.904285
  0
ARC
  5
229
102
{ACAD_XDICTIONARY
360
227
102
}
330
1B
100
AcDbEntity
 67
     1
  8
0
  6
Continuous
 62
    18
420
  4980736
100
AcDbCircle
 10
42.354821
 20
68.436811
 30
0.0
 40
3.117408999999993
100
AcDbArc
 50
119.914216
 51
128.0135359999999
  0
ARC
  5
22C
102
{ACAD_XDICTIONARY
360
22A
102
}
330
1B
100
AcDbEntity
 67
     1
  8
0
  6
Continuous
 62
    18
420
  4980736
100
AcDbCircle
 10
42.094061
 20
68.774964
 30
0.0
 40
2.690402999999991
100
AcDbArc
 50
128.073342
 51
137.4466009999997
  0
ARC
  5
22F
102
{ACAD_XDICTIONARY
360
22D
102
}
330
1B
100
AcDbEntity
 67
     1
  8
0
  6
Continuous
 62
    18
420
  4980736
100
AcDbCircle
 10
42.471824
 20
68.432837
 30
0.0
 40
3.200054999999999
100
AcDbArc
 50
137.508305
 51
145.39548
  0
ARC
  5
232
102
{ACAD_XDICTIONARY
360
230
102
}
330
1B
100
AcDbEntity
 67
     1
  8
0
  6
Continuous
 62
    18
420
  4980736
100
AcDbCircle
 10
43.162404
 20
67.956795
 30
0.0
 40
4.038814999999998
100
AcDbArc
 50
145.4005889999999
 51
151.6508680000001
  0
ARC
  5
235
102
{ACAD_XDICTIONARY
360
233
102
}
330
1B
100
AcDbEntity
 67
     1
  8
0
  6
Continuous
 62
    18
420
  4980736
100
AcDbCircle
 10
44.443091
 20
67.264887
 30
0.0
 40
5.494456000000001
100
AcDbArc
 50
151.642508
 51
156.237039
  0
ARC
  5
238
102
{ACAD_XDICTIONARY
360
236
102
}
330
1B
100
AcDbEntity
 67
     1
  8
0
  6
Continuous
 62
    18
420
  4980736
100
AcDbCircle
 10
46.700964
 20
66.270018
 30
0.0
 40
7.961794000000002
100
AcDbArc
 50
156.231958
 51
159.400127
  0
ARC
  5
23B
102
{ACAD_XDICTIONARY
360
239
102
}
330
1B
100
AcDbEntity
 67
     1
  8
0
  6
Continuous
 62
    18
420
  4980736
100
AcDbCircle
 10
50.974891
 20
64.654255
 30
0.0
 40
12.53094
100
AcDbArc
 50
159.36028
 51
161.374462
  0
ARC
  5
23E
102
{ACAD_XDICTIONARY
360
23C
102
}
330
1B
100
AcDbEntity
 67
     1
  8
0
  6
Continuous
 62
    18
420
  4980736
100
AcDbCircle
 10
62.787484
 20
60.682844
 30
0.0
 40
24.993259
100
AcDbArc
 50
161.395813
 51
162.405888
  0
ARC
  5
241
102
{ACAD_XDICTIONARY
360
23F
102
}
330
1B
100
AcDbEntity
 67
     1
  8
0
  6
Continuous
 62
    18
420
  4980736
100
AcDbCircle
 10
10.555523
 20
77.234207
 30
0.0
 40
29.798397
100
AcDbArc
 50
341.580301
 51
342.427294
  0
ARC
  5
244
102
{ACAD_XDICTIONARY
360
242
102
}
330
1B
100
AcDbEntity
 67
     1
  8
0
  6
Continuous
 62
    18
420
  4980736
100
AcDbCircle
 10
31.860955
 20
70.124154
 30
0.0
 40
7.337906999999998
100
AcDbArc
 50
338.2515470000001
 51
341.6880430000001
  0
ARC
  5
247
102
{ACAD_XDICTIONARY
360
245
102
}
330
1B
100
AcDbEntity
 67
     1
  8
0
  6
Continuous
 62
    18
420
  4980736
100
AcDbCircle
 10
35.192865
 20
68.793505
 30
0.0
 40
3.75011600000001
100
AcDbArc
 50
331.5405059999999
 51
338.2722140000001
  0
ARC
  5
24A
102
{ACAD_XDICTIONARY
360
248
102
}
330
1B
100
AcDbEntity
 67
     1
  8
0
  6
Continuous
 62
    18
420
  4980736
100
AcDbCircle
 10
36.577872
 20
68.039084
 30
0.0
 40
2.172974000000002
100
AcDbArc
 50
319.9983180000002
 51
331.6260689999999
  0
ARC
  5
24D
102
{ACAD_XDICTIONARY
360
24B
102
}
330
1B
100
AcDbEntity
 67
     1
  8
0
  6
Continuous
 62
    18
420
  4980736
100
AcDbCircle
 10
36.741915
 20
67.933607
 30
0.0
 40
1.979665000000004
100
AcDbArc
 50
306.5616689999998
 51
319.28485
  0
ARC
  5
250
102
{ACAD_XDICTIONARY
360
24E
102
}
330
1B
100
AcDbEntity
 67
     1
  8
0
  6
Continuous
 62
    18
420
  4980736
100
AcDbCircle
 10
36.461101
 20
68.304699
 30
0.0
 40
2.445013999999997
100
AcDbArc
 50
296.303316
 51
306.667113
  0
ARC
  5
253
102
{ACAD_XDICTIONARY
360
251
102
}
330
1B
100
AcDbEntity
 67
     1
  8
0
  6
Continuous
 62
    18
420
  4980736
100
AcDbCircle
 10
36.463927
 20
68.292662
 30
0.0
 40
2.432972000000002
100
AcDbArc
 50
286.016156
 51
296.369268
  0
ARC
  5
256
102
{ACAD_XDICTIONARY
360
254
102
}
330
1B
100
AcDbEntity
 67
     1
  8
0
  6
Continuous
 62
    18
420
  4980736
100
AcDbCircle
 10
42.950876
 20
67.347794
 30
0.0
 40
4.068622000000003
100
AcDbArc
 50
103.067766
 51
109.268021
  0
ARC
  5
259
102
{ACAD_XDICTIONARY
360
257
102
}
330
1B
100
AcDbEntity
 67
     1
  8
0
  6
Continuous
 62
    18
420
  4980736
100
AcDbCircle
 10
43.050163
 20
67.047794
 30
0.0
 40
4.384582999999999
100
AcDbArc
 50
109.199159
 51
114.9609769999998
  0
ARC
  5
25C
102
{ACAD_XDICTIONARY
360
25A
102
}
330
1B
100
AcDbEntity
 67
     1
  8
0
  6
Continuous
 62
    18
420
  4980736
100
AcDbCircle
 10
42.529967
 20
68.15586
 30
0.0
 40
3.160494999999996
100
AcDbArc
 50
114.888399
 51
122.8785589999997
  0
ARC
  5
25F
102
{ACAD_XDICTIONARY
360
25D
102
}
330
1B
100
AcDbEntity
 67
     1
  8
0
  6
Continuous
 62
    18
420
  4980736
100
AcDbCircle
 10
42.270794
 20
68.571519
 30
0.0
 40
2.670732000000002
100
AcDbArc
 50
123.04986
 51
132.5031020000001
  0
ARC
  5
262
102
{ACAD_XDICTIONARY
360
260
102
}
330
1B
100
AcDbEntity
 67
     1
  8
0
  6
Continuous
 62
    18
420
  4980736
100
AcDbCircle
 10
42.190615
 20
68.662377
 30
0.0
 40
2.549578000000007
100
AcDbArc
 50
132.5542460000001
 51
142.4487590000004
  0
ARC
  5
265
102
{ACAD_XDICTIONARY
360
263
102
}
330
1B
100
AcDbEntity
 67
     1
  8
0
  6
Continuous
 62
    18
420
  4980736
100
AcDbCircle
 10
42.852668
 20
68.158683
 30
0.0
 40
3.381448000000001
100
AcDbArc
 50
142.519397
 51
149.9772119999999
  0
ARC
  5
268
102
{ACAD_XDICTIONARY
360
266
102
}
330
1B
100
AcDbEntity
 67
     1
  8
0
  6
Continuous
 62
    18
420
  4980736
100
AcDbCircle
 10
44.031648
 20
67.470299
 30
0.0
 40
4.746674000000005
100
AcDbArc
 50
149.903282
 51
155.222387
  0
ARC
  5
26B
102
{ACAD_XDICTIONARY
360
269
102
}
330
1B
100
AcDbEntity
 67
     1
  8
0
  6
Continuous
 62
    18
420
  4980736
100
AcDbCircle
 10
46.045227
 20
66.539498
 30
0.0
 40
6.964981000000001
100
AcDbArc
 50
155.212292
 51
158.836596
  0
ARC
  5
26E
102
{ACAD_XDICTIONARY
360
26C
102
}
330
1B
100
AcDbEntity
 67
     1
  8
0
  6
Continuous
 62
    18
420
  4980736
100
AcDbCircle
 10
49.740293
 20
65.107097
 30
0.0
 40
10.927971
100
AcDbArc
 50
158.827334
 51
161.13617
  0
ARC
  5
271
102
{ACAD_XDICTIONARY
360
26F
102
}
330
1B
100
AcDbEntity
 67
     1
  8
0
  6
Continuous
 62
    18
420
  4980736
100
AcDbCircle
 10
61.652639
 20
61.034371
 30
0.0
 40
23.517296
100
AcDbArc
 50
161.130132
 51
162.203455
  0
ARC
  5
274
102
{ACAD_XDICTIONARY
360
272
102
}
330
1B
100
AcDbEntity
 67
     1
  8
0
  6
Continuous
 62
    18
420
  4980736
100
AcDbCircle
 10
-57.070812
 20
99.088217
 30
0.0
 40
101.155693
100
AcDbArc
 50
341.9842829999999
 51
342.233758
  0
ARC
  5
277
102
{ACAD_XDICTIONARY
360
275
102
}
330
1B
100
AcDbEntity
 67
     1
  8
0
  6
Continuous
 62
    18
420
  4980736
100
AcDbCircle
 10
30.514237
 20
70.598495
 30
0.0
 40
9.053549000000004
100
AcDbArc
 50
339.226798
 51
342.014678
  0
ARC
  5
27A
102
{ACAD_XDICTIONARY
360
278
102
}
330
1B
100
AcDbEntity
 67
     1
  8
0
  6
Continuous
 62
    18
420
  4980736
100
AcDbCircle
 10
34.836123
 20
68.95544
 30
0.0
 40
4.429882000000001
100
AcDbArc
 50
333.5748499999999
 51
339.2707859999999
  0
ARC
  5
27D
102
{ACAD_XDICTIONARY
360
27B
102
}
330
1B
100
AcDbEntity
 67
     1
  8
0
  6
Continuous
 62
    18
420
  4980736
100
AcDbCircle
 10
36.229192
 20
68.26476
 30
0.0
 40
2.874992999999997
100
AcDbArc
 50
324.7708470000001
 51
333.546138
  0
ARC
  5
280
102
{ACAD_XDICTIONARY
360
27E
102
}
330
1B
100
AcDbEntity
 67
     1
  8
0
  6
Continuous
 62
    18
420
  4980736
100
AcDbCircle
 10
36.755339
 20
67.891877
 30
0.0
 40
2.230112000000007
100
AcDbArc
 50
313.4672559999999
 51
324.7986840000001
  0
ARC
  5
283
102
{ACAD_XDICTIONARY
360
281
102
}
330
1B
100
AcDbEntity
 67
     1
  8
0
  6
Continuous
 62
    18
420
  4980736
100
AcDbCircle
 10
36.737409
 20
67.94106
 30
0.0
 40
2.278238000000003
100
AcDbArc
 50
301.8804929999999
 51
312.943606
  0
ARC
  5
286
102
{ACAD_XDICTIONARY
360
284
102
}
330
1B
100
AcDbEntity
 67
     1
  8
0
  6
Continuous
 62
    18
420
  4980736
100
AcDbCircle
 10
36.316277
 20
68.607413
 30
0.0
 40
3.066498999999993
100
AcDbArc
 50
293.725629
 51
301.9864359999999
  0
ARC
  5
289
102
{ACAD_XDICTIONARY
360
287
102
}
330
1B
100
AcDbEntity
 67
     1
  8
0
  6
Continuous
 62
    18
420
  4980736
100
AcDbCircle
 10
36.369965
 20
68.474792
 30
0.0
 40
2.923486000000001
100
AcDbArc
 50
285.184109
 51
293.808152
  0
ARC
  5
28C
102
{ACAD_XDICTIONARY
360
28A
102
}
330
1B
100
AcDbEntity
 67
     1
  8
0
  6
Continuous
 62
    18
420
  4980736
100
AcDbCircle
 10
94.008932
 20
72.663217
 30
0.0
 40
24.214302
100
AcDbArc
 50
159.944671
 51
164.198144
  0
ARC
  5
28F
102
{ACAD_XDICTIONARY
360
28D
102
}
330
1B
100
AcDbEntity
 67
     1
  8
0
  6
Continuous
 62
    18
420
  4980736
100
AcDbCircle
 10
94.092748
 20
72.63632
 30
0.0
 40
24.302275
100
AcDbArc
 50
164.190945
 51
168.430361
  0
ARC
  5
292
102
{ACAD_XDICTIONARY
360
290
102
}
330
1B
100
AcDbEntity
 67
     1
  8
0
  6
Continuous
 62
    18
420
  4980736
100
AcDbCircle
 10
92.979024
 20
72.861773
 30
0.0
 40
23.16596
100
AcDbArc
 50
168.4242
 51
172.870736
  0
ARC
  5
295
102
{ACAD_XDICTIONARY
360
293
102
}
330
1B
100
AcDbEntity
 67
     1
  8
0
  6
Continuous
 62
    18
420
  4980736
100
AcDbCircle
 10
91.844288
 20
73.004114
 30
0.0
 40
22.022333
100
AcDbArc
 50
172.871801
 51
177.549483
  0
ARC
  5
298
102
{ACAD_XDICTIONARY
360
296
102
}
330
1B
100
AcDbEntity
 67
     1
  8
0
  6
Continuous
 62
    18
420
  4980736
100
AcDbCircle
 10
90.919754
 20
73.046967
 30
0.0
 40
21.096811
100
AcDbArc
 50
177.55839
 51
182.441214
  0
ARC
  5
29B
102
{ACAD_XDICTIONARY
360
299
102
}
330
1B
100
AcDbEntity
 67
     1
  8
0
  6
Continuous
 62
    18
420
  4980736
100
AcDbCircle
 10
91.844209
 20
73.089809
 30
0.0
 40
22.022255
100
AcDbArc
 50
182.450134
 51
187.127939
  0
ARC
  5
29E
102
{ACAD_XDICTIONARY
360
29C
102
}
330
1B
100
AcDbEntity
 67
     1
  8
0
  6
Continuous
 62
    18
420
  4980736
100
AcDbCircle
 10
92.978951
 20
73.232148
 30
0.0
 40
23.16589
100
AcDbArc
 50
187.129005
 51
191.575513
  0
ARC
  5
2A1
102
{ACAD_XDICTIONARY
360
29F
102
}
330
1B
100
AcDbEntity
 67
     1
  8
0
  6
Continuous
 62
    18
420
  4980736
100
AcDbCircle
 10
94.092734
 20
73.457608
 30
0.0
 40
24.30225799999999
100
AcDbArc
 50
191.569338
 51
195.808878
  0
ARC
  5
2A4
102
{ACAD_XDICTIONARY
360
2A2
102
}
330
1B
100
AcDbEntity
 67
     1
  8
0
  6
Continuous
 62
    18
420
  4980736
100
AcDbCircle
 10
94.008914
 20
73.430708
 30
0.0
 40
24.214281
100
AcDbArc
 50
195.801665
 51
200.055329
  0
TEXT
  5
2A6
330
1B
100
AcDbEntity
 67
     1
  8
0
  6
Continuous
 62
    18
420
  4980736
100
AcDbText
 10
56.856037
 20
185.044535012251
 30
0.0
 40
2.304000079631805
  1
雨水流入　水上側
 41
0.807
  7
_TCW_TXTSTY_3
100
AcDbText
  0
TEXT
  5
2A8
330
1B
100
AcDbEntity
 67
     1
  8
0
  6
Continuous
 62
    18
420
  4980736
100
AcDbText
 10
57.726846
 20
24.37496501225097
 30
0.0
 40
2.304000079631805
  1
ゴミ、濁水流出口
 41
0.873
  7
_TCW_TXTSTY_4
100
AcDbText
  0
TEXT
  5
2AA
330
1B
100
AcDbEntity
 67
     1
  8
0
  6
Continuous
 62
    18
420
  4980736
100
AcDbText
 10
100.350832
 20
76.21496401225097
 30
0.0
 40
2.304000079631805
  1
雨水ろ過水出口
 41
0.887
  7
_TCW_TXTSTY_5
100
AcDbText
  0
TEXT
  5
2AC
330
1B
100
AcDbEntity
 67
     1
  8
0
  6
Continuous
 62
    18
420
  4980736
100
AcDbText
 10
14.641401
 20
84.66013501225098
 30
0.0
 40
2.304000079631805
  1
ステンレスフィルター
 41
0.802
  7
_TCW_TXTSTY_6
100
AcDbText
  0
LINE
  5
2AF
102
{ACAD_XDICTIONARY
360
2AD
102
}
330
1B
100
AcDbEntity
 67
     1
  8
0
  6
Continuous
 62
    18
420
  4980736
100
AcDbLine
 10
42.030933
 20
42.93381
 30
0.0
 11
53.982938
 21
42.93381
 31
0.0
  0
LINE
  5
2B2
102
{ACAD_XDICTIONARY
360
2B0
102
}
330
1B
100
AcDbEntity
 67
     1
  8
0
  6
Continuous
 62
    18
420
  4980736
100
AcDbLine
 10
42.030933
 20
42.93381
 30
0.0
 11
44.190933
 21
43.65381
 31
0.0
  0
LINE
  5
2B5
102
{ACAD_XDICTIONARY
360
2B3
102
}
330
1B
100
AcDbEntity
 67
     1
  8
0
  6
Continuous
 62
    18
420
  4980736
100
AcDbLine
 10
42.030933
 20
42.93381
 30
0.0
 11
44.190933
 21
42.21381
 31
0.0
  0
LINE
  5
2B8
102
{ACAD_XDICTIONARY
360
2B6
102
}
330
1B
100
AcDbEntity
 67
     1
  8
0
  6
Continuous
 62
    18
420
  4980736
100
AcDbLine
 10
65.934942
 20
42.93381
 30
0.0
 11
53.982938
 21
42.93381
 31
0.0
  0
LINE
  5
2BB
102
{ACAD_XDICTIONARY
360
2B9
102
}
330
1B
100
AcDbEntity
 67
     1
  8
0
  6
Continuous
 62
    18
420
  4980736
100
AcDbLine
 10
65.934942
 20
42.93381
 30
0.0
 11
63.774942
 21
42.21381
 31
0.0
  0
LINE
  5
2BE
102
{ACAD_XDICTIONARY
360
2BC
102
}
330
1B
100
AcDbEntity
 67
     1
  8
0
  6
Continuous
 62
    18
420
  4980736
100
AcDbLine
 10
65.934942
 20
42.93381
 30
0.0
 11
63.774942
 21
43.65381
 31
0.0
  0
LINE
  5
2C1
102
{ACAD_XDICTIONARY
360
2BF
102
}
330
1B
100
AcDbEntity
 67
     1
  8
0
  6
Continuous
 62
    18
420
  4980736
100
AcDbLine
 10
42.030933
 20
58.646965
 30
0.0
 11
42.030933
 21
41.287889
 31
0.0
  0
LINE
  5
2C4
102
{ACAD_XDICTIONARY
360
2C2
102
}
330
1B
100
AcDbEntity
 67
     1
  8
0
  6
Continuous
 62
    18
420
  4980736
100
AcDbLine
 10
65.934942
 20
58.646965
 30
0.0
 11
65.934942
 21
41.287889
 31
0.0
  0
LINE
  5
2C7
102
{ACAD_XDICTIONARY
360
2C5
102
}
330
1B
100
AcDbEntity
 67
     1
  8
0
  6
Continuous
 62
    18
420
  4980736
100
AcDbLine
 10
36.702938
 20
33.956326
 30
0.0
 11
53.982938
 21
33.956326
 31
0.0
  0
LINE
  5
2CA
102
{ACAD_XDICTIONARY
360
2C8
102
}
330
1B
100
AcDbEntity
 67
     1
  8
0
  6
Continuous
 62
    18
420
  4980736
100
AcDbLine
 10
36.702938
 20
33.956326
 30
0.0
 11
38.862938
 21
34.676326
 31
0.0
  0
LINE
  5
2CD
102
{ACAD_XDICTIONARY
360
2CB
102
}
330
1B
100
AcDbEntity
 67
     1
  8
0
  6
Continuous
 62
    18
420
  4980736
100
AcDbLine
 10
36.702938
 20
33.956326
 30
0.0
 11
38.862938
 21
33.236326
 31
0.0
  0
LINE
  5
2D0
102
{ACAD_XDICTIONARY
360
2CE
102
}
330
1B
100
AcDbEntity
 67
     1
  8
0
  6
Continuous
 62
    18
420
  4980736
100
AcDbLine
 10
71.262938
 20
33.956326
 30
0.0
 11
53.982938
 21
33.956326
 31
0.0
  0
LINE
  5
2D3
102
{ACAD_XDICTIONARY
360
2D1
102
}
330
1B
100
AcDbEntity
 67
     1
  8
0
  6
Continuous
 62
    18
420
  4980736
100
AcDbLine
 10
71.262938
 20
33.956326
 30
0.0
 11
69.102938
 21
33.236326
 31
0.0
  0
LINE
  5
2D6
102
{ACAD_XDICTIONARY
360
2D4
102
}
330
1B
100
AcDbEntity
 67
     1
  8
0
  6
Continuous
 62
    18
420
  4980736
100
AcDbLine
 10
71.262938
 20
33.956326
 30
0.0
 11
69.102938
 21
34.676326
 31
0.0
  0
LINE
  5
2D9
102
{ACAD_XDICTIONARY
360
2D7
102
}
330
1B
100
AcDbEntity
 67
     1
  8
0
  6
Continuous
 62
    18
420
  4980736
100
AcDbLine
 10
36.702938
 20
60.950966
 30
0.0
 11
36.702938
 21
32.310406
 31
0.0
  0
LINE
  5
2DC
102
{ACAD_XDICTIONARY
360
2DA
102
}
330
1B
100
AcDbEntity
 67
     1
  8
0
  6
Continuous
 62
    18
420
  4980736
100
AcDbLine
 10
71.262938
 20
60.950966
 30
0.0
 11
71.262938
 21
32.310406
 31
0.0
  0
TEXT
  5
2DE
330
1B
100
AcDbEntity
 67
     1
  8
0
  6
Continuous
 62
    18
420
  4980736
100
AcDbText
 10
97.309787987749
 20
63.87200500000002
 30
0.0
 40
2.304000079631805
  1
50
 50
90.00000300000038
 41
0.975
  7
_TCW_TXTSTY_7
100
AcDbText
  0
LINE
  5
2E1
102
{ACAD_XDICTIONARY
360
2DF
102
}
330
1B
100
AcDbEntity
 67
     1
  8
0
  6
Continuous
 62
    18
420
  4980736
100
AcDbLine
 10
97.885788
 20
58.646965
 30
0.0
 11
97.885788
 21
65.846965
 31
0.0
  0
LINE
  5
2E4
102
{ACAD_XDICTIONARY
360
2E2
102
}
330
1B
100
AcDbEntity
 67
     1
  8
0
  6
Continuous
 62
    18
420
  4980736
100
AcDbLine
 10
97.885788
 20
58.646965
 30
0.0
 11
97.165788
 21
60.806965
 31
0.0
  0
LINE
  5
2E7
102
{ACAD_XDICTIONARY
360
2E5
102
}
330
1B
100
AcDbEntity
 67
     1
  8
0
  6
Continuous
 62
    18
420
  4980736
100
AcDbLine
 10
97.885788
 20
58.646965
 30
0.0
 11
98.605788
 21
60.806965
 31
0.0
  0
LINE
  5
2EA
102
{ACAD_XDICTIONARY
360
2E8
102
}
330
1B
100
AcDbEntity
 67
     1
  8
0
  6
Continuous
 62
    18
420
  4980736
100
AcDbLine
 10
97.885788
 20
73.046965
 30
0.0
 11
97.885788
 21
65.846965
 31
0.0
  0
LINE
  5
2ED
102
{ACAD_XDICTIONARY
360
2EB
102
}
330
1B
100
AcDbEntity
 67
     1
  8
0
  6
Continuous
 62
    18
420
  4980736
100
AcDbLine
 10
97.885788
 20
73.046965
 30
0.0
 11
98.605788
 21
70.886965
 31
0.0
  0
LINE
  5
2F0
102
{ACAD_XDICTIONARY
360
2EE
102
}
330
1B
100
AcDbEntity
 67
     1
  8
0
  6
Continuous
 62
    18
420
  4980736
100
AcDbLine
 10
97.885788
 20
73.046965
 30
0.0
 11
97.165788
 21
70.886965
 31
0.0
  0
LINE
  5
2F3
102
{ACAD_XDICTIONARY
360
2F1
102
}
330
1B
100
AcDbEntity
 67
     1
  8
0
  6
Continuous
 62
    18
420
  4980736
100
AcDbLine
 10
65.934942
 20
58.646965
 30
0.0
 11
99.531705
 21
58.646965
 31
0.0
  0
LINE
  5
2F6
102
{ACAD_XDICTIONARY
360
2F4
102
}
330
1B
100
AcDbEntity
 67
     1
  8
0
  6
Continuous
 62
    18
420
  4980736
100
AcDbLine
 10
85.662938
 20
73.046965
 30
0.0
 11
99.531705
 21
73.046965
 31
0.0
  0
LINE
  5
2F9
102
{ACAD_XDICTIONARY
360
2F7
102
}
330
1B
100
AcDbEntity
 67
     1
  8
0
  6
Continuous
 62
    18
420
  4980736
100
AcDbLine
 10
124.229849
 20
58.646965
 30
0.0
 11
124.229849
 21
109.26667965834
 31
0.0
  0
LINE
  5
2FC
102
{ACAD_XDICTIONARY
360
2FA
102
}
330
1B
100
AcDbEntity
 67
     1
  8
0
  6
Continuous
 62
    18
420
  4980736
100
AcDbLine
 10
124.229849
 20
58.646965
 30
0.0
 11
123.509849
 21
60.806965
 31
0.0
  0
LINE
  5
2FF
102
{ACAD_XDICTIONARY
360
2FD
102
}
330
1B
100
AcDbEntity
 67
     1
  8
0
  6
Continuous
 62
    18
420
  4980736
100
AcDbLine
 10
124.229849
 20
58.646965
 30
0.0
 11
124.949849
 21
60.806965
 31
0.0
  0
LINE
  5
302
102
{ACAD_XDICTIONARY
360
300
102
}
330
1B
100
AcDbEntity
 67
     1
  8
0
  6
Continuous
 62
    18
420
  4980736
100
AcDbLine
 10
124.229849
 20
159.446963
 30
0.0
 11
124.229849
 21
109.046964
 31
0.0
  0
LINE
  5
305
102
{ACAD_XDICTIONARY
360
303
102
}
330
1B
100
AcDbEntity
 67
     1
  8
0
  6
Continuous
 62
    18
420
  4980736
100
AcDbLine
 10
124.229849
 20
159.446963
 30
0.0
 11
124.949849
 21
157.286963
 31
0.0
  0
LINE
  5
308
102
{ACAD_XDICTIONARY
360
306
102
}
330
1B
100
AcDbEntity
 67
     1
  8
0
  6
Continuous
 62
    18
420
  4980736
100
AcDbLine
 10
124.229849
 20
159.446963
 30
0.0
 11
123.509849
 21
157.286963
 31
0.0
  0
LINE
  5
30B
102
{ACAD_XDICTIONARY
360
309
102
}
330
1B
100
AcDbEntity
 67
     1
  8
0
  6
Continuous
 62
    18
420
  4980736
100
AcDbLine
 10
65.934942
 20
58.646965
 30
0.0
 11
125.875766
 21
58.646965
 31
0.0
  0
LINE
  5
30E
102
{ACAD_XDICTIONARY
360
30C
102
}
330
1B
100
AcDbEntity
 67
     1
  8
0
  6
Continuous
 62
    18
420
  4980736
100
AcDbLine
 10
66.942938
 20
159.446963
 30
0.0
 11
125.875766
 21
159.446963
 31
0.0
  0
MTEXT
  5
312
102
{ACAD_XDICTIONARY
360
310
102
}
330
1B
100
AcDbEntity
 67
     1
  8
0
  6
Continuous
 62
    18
420
  4980736
100
AcDbMText
 10
84.695
 20
148.832003
 30
0.0
 40
2.304000079631805
 41
3.04128
 46
0.0
 71
     1
 72
     1
  1
80\P
  7
_TCW_TXTSTY_8
 11
6.123031769111886E-17
 21
1.0
 31
0.0
 73
     1
 44
1.0
  0
LINE
  5
315
102
{ACAD_XDICTIONARY
360
313
102
}
330
1B
100
AcDbEntity
 67
     1
  8
0
  6
Continuous
 62
    18
420
  4980736
100
AcDbLine
 10
90.43196
 20
159.446963
 30
0.0
 11
90.43196
 21
150.806963
 31
0.0
  0
LINE
  5
318
102
{ACAD_XDICTIONARY
360
316
102
}
330
1B
100
AcDbEntity
 67
     1
  8
0
  6
Continuous
 62
    18
420
  4980736
100
AcDbLine
 10
90.43196
 20
159.446963
 30
0.0
 11
91.15196
 21
157.286963
 31
0.0
  0
LINE
  5
31B
102
{ACAD_XDICTIONARY
360
319
102
}
330
1B
100
AcDbEntity
 67
     1
  8
0
  6
Continuous
 62
    18
420
  4980736
100
AcDbLine
 10
90.43196
 20
159.446963
 30
0.0
 11
89.71196
 21
157.286963
 31
0.0
  0
LINE
  5
31E
102
{ACAD_XDICTIONARY
360
31C
102
}
330
1B
100
AcDbEntity
 67
     1
  8
0
  6
Continuous
 62
    18
420
  4980736
100
AcDbLine
 10
66.942938
 20
159.446963
 30
0.0
 11
92.077877
 21
159.446963
 31
0.0
  0
TEXT
  5
320
330
1B
100
AcDbEntity
 67
     1
  8
0
  6
Continuous
 62
    18
420
  4980736
100
AcDbText
 10
75.047978
 20
34.53232601225097
 30
0.0
 40
2.304000079631805
  1
40
 41
0.975
  7
_TCW_TXTSTY_9
100
AcDbText
  0
LINE
  5
323
102
{ACAD_XDICTIONARY
360
321
102
}
330
1B
100
AcDbEntity
 67
     1
  8
0
  6
Continuous
 62
    18
420
  4980736
100
AcDbLine
 10
71.262938
 20
33.956326
 30
0.0
 11
77.022938
 21
33.956326
 31
0.0
  0
LINE
  5
326
102
{ACAD_XDICTIONARY
360
324
102
}
330
1B
100
AcDbEntity
 67
     1
  8
0
  6
Continuous
 62
    18
420
  4980736
100
AcDbLine
 10
71.262938
 20
33.956326
 30
0.0
 11
73.422938
 21
34.676326
 31
0.0
  0
LINE
  5
329
102
{ACAD_XDICTIONARY
360
327
102
}
330
1B
100
AcDbEntity
 67
     1
  8
0
  6
Continuous
 62
    18
420
  4980736
100
AcDbLine
 10
71.262938
 20
33.956326
 30
0.0
 11
73.422938
 21
33.236326
 31
0.0
  0
LINE
  5
32C
102
{ACAD_XDICTIONARY
360
32A
102
}
330
1B
100
AcDbEntity
 67
     1
  8
0
  6
Continuous
 62
    18
420
  4980736
100
AcDbLine
 10
82.782938
 20
33.956326
 30
0.0
 11
77.022938
 21
33.956326
 31
0.0
  0
LINE
  5
32F
102
{ACAD_XDICTIONARY
360
32D
102
}
330
1B
100
AcDbEntity
 67
     1
  8
0
  6
Continuous
 62
    18
420
  4980736
100
AcDbLine
 10
82.782938
 20
33.956326
 30
0.0
 11
80.622938
 21
33.236326
 31
0.0
  0
LINE
  5
332
102
{ACAD_XDICTIONARY
360
330
102
}
330
1B
100
AcDbEntity
 67
     1
  8
0
  6
Continuous
 62
    18
420
  4980736
100
AcDbLine
 10
82.782938
 20
33.956326
 30
0.0
 11
80.622938
 21
34.676326
 31
0.0
  0
LINE
  5
335
102
{ACAD_XDICTIONARY
360
333
102
}
330
1B
100
AcDbEntity
 67
     1
  8
0
  6
Continuous
 62
    18
420
  4980736
100
AcDbLine
 10
71.262938
 20
60.950966
 30
0.0
 11
71.262938
 21
32.310406
 31
0.0
  0
LINE
  5
338
102
{ACAD_XDICTIONARY
360
336
102
}
330
1B
100
AcDbEntity
 67
     1
  8
0
  6
Continuous
 62
    18
420
  4980736
100
AcDbLine
 10
82.782938
 20
65.846965
 30
0.0
 11
82.782938
 21
32.310406
 31
0.0
  0
LINE
  5
33B
102
{ACAD_XDICTIONARY
360
339
102
}
330
1B
100
AcDbEntity
 67
     1
  8
0
  6
Continuous
 62
    18
420
  4980736
100
AcDbLine
 10
67.230944
 20
168.435537
 30
0.0
 11
65.070944
 21
167.715537
 31
0.0
  0
LINE
  5
33E
102
{ACAD_XDICTIONARY
360
33C
102
}
330
1B
100
AcDbEntity
 67
     1
  8
0
  6
Continuous
 62
    18
420
  4980736
100
AcDbLine
 10
67.230944
 20
168.435537
 30
0.0
 11
65.070944
 21
169.155537
 31
0.0
  0
LINE
  5
341
102
{ACAD_XDICTIONARY
360
33F
102
}
330
1B
100
AcDbEntity
 67
     1
  8
0
  6
Continuous
 62
    18
420
  4980736
100
AcDbLine
 10
40.734942
 20
168.435537
 30
0.0
 11
42.894942
 21
169.155537
 31
0.0
  0
LINE
  5
344
102
{ACAD_XDICTIONARY
360
342
102
}
330
1B
100
AcDbEntity
 67
     1
  8
0
  6
Continuous
 62
    18
420
  4980736
100
AcDbLine
 10
40.734942
 20
168.435537
 30
0.0
 11
42.894942
 21
167.715537
 31
0.0
  0
LINE
  5
347
102
{ACAD_XDICTIONARY
360
345
102
}
330
1B
100
AcDbEntity
 67
     1
  8
0
  6
Continuous
 62
    18
420
  4980736
100
AcDbLine
 10
40.734942
 20
159.446963
 30
0.0
 11
40.734942
 21
170.081454
 31
0.0
  0
LINE
  5
34A
102
{ACAD_XDICTIONARY
360
348
102
}
330
1B
100
AcDbEntity
 67
     1
  8
0
  6
Continuous
 62
    18
420
  4980736
100
AcDbLine
 10
90.791367
 20
79.399552
 30
0.0
 11
90.414552
 21
72.209419
 31
0.0
  0
LINE
  5
34D
102
{ACAD_XDICTIONARY
360
34B
102
}
330
1B
100
AcDbEntity
 67
     1
  8
0
  6
Continuous
 62
    18
420
  4980736
100
AcDbLine
 10
90.414552
 20
72.209419
 30
0.0
 11
91.242268
 21
88.003157
 31
0.0
  0
LINE
  5
350
102
{ACAD_XDICTIONARY
360
34E
102
}
330
1B
100
AcDbEntity
 67
     1
  8
0
  6
Continuous
 62
    18
420
  4980736
100
AcDbLine
 10
90.791367
 20
79.399552
 30
0.0
 11
91.397335
 21
77.204831
 31
0.0
  0
LINE
  5
353
102
{ACAD_XDICTIONARY
360
351
102
}
330
1B
100
AcDbEntity
 67
     1
  8
0
  6
Continuous
 62
    18
420
  4980736
100
AcDbLine
 10
90.791367
 20
79.399552
 30
0.0
 11
89.959309
 21
77.280193
 31
0.0
  0
LINE
  5
356
102
{ACAD_XDICTIONARY
360
354
102
}
330
1B
100
AcDbEntity
 67
     1
  8
0
  6
Continuous
 62
    18
420
  4980736
100
AcDbLine
 10
90.037737
 20
65.019286
 30
0.0
 11
90.414552
 21
72.209419
 31
0.0
  0
LINE
  5
359
102
{ACAD_XDICTIONARY
360
357
102
}
330
1B
100
AcDbEntity
 67
     1
  8
0
  6
Continuous
 62
    18
420
  4980736
100
AcDbLine
 10
90.037737
 20
65.019286
 30
0.0
 11
89.431769
 21
67.214007
 31
0.0
  0
LINE
  5
35C
102
{ACAD_XDICTIONARY
360
35A
102
}
330
1B
100
AcDbEntity
 67
     1
  8
0
  6
Continuous
 62
    18
420
  4980736
100
AcDbLine
 10
90.037737
 20
65.019286
 30
0.0
 11
90.869795
 21
67.138644
 31
0.0
  0
LINE
  5
35F
102
{ACAD_XDICTIONARY
360
35D
102
}
330
1B
100
AcDbEntity
 67
     1
  8
0
  6
Continuous
 62
    18
420
  4980736
100
AcDbLine
 10
83.152836
 20
79.799871
 30
0.0
 11
92.435031
 21
79.31341
 31
0.0
  0
LINE
  5
362
102
{ACAD_XDICTIONARY
360
360
102
}
330
1B
100
AcDbEntity
 67
     1
  8
0
  6
Continuous
 62
    18
420
  4980736
100
AcDbLine
 10
82.399196
 20
65.419606
 30
0.0
 11
91.681402
 21
64.933145
 31
0.0
  0
TEXT
  5
363
330
1B
100
AcDbEntity
 67
     1
  8
0
  6
Continuous
 62
    18
420
  4980736
100
AcDbText
 10
62.68156298774905
 20
63.87206600000007
 30
0.0
 40
2.304000079631805
  1
50
 50
90.00000300000009
 41
0.975
  7
_TCW_TXTSTY_9
100
AcDbText
  0
LINE
  5
366
102
{ACAD_XDICTIONARY
360
364
102
}
330
1B
100
AcDbEntity
 67
     1
  8
0
  6
Continuous
 62
    18
420
  4980736
100
AcDbLine
 10
63.257563
 20
73.047083
 30
0.0
 11
63.257563
 21
65.847024
 31
0.0
  0
LINE
  5
369
102
{ACAD_XDICTIONARY
360
367
102
}
330
1B
100
AcDbEntity
 67
     1
  8
0
  6
Continuous
 62
    18
420
  4980736
100
AcDbLine
 10
63.257563
 20
73.047083
 30
0.0
 11
63.977563
 21
70.887083
 31
0.0
  0
LINE
  5
36C
102
{ACAD_XDICTIONARY
360
36A
102
}
330
1B
100
AcDbEntity
 67
     1
  8
0
  6
Continuous
 62
    18
420
  4980736
100
AcDbLine
 10
63.257563
 20
73.047083
 30
0.0
 11
62.537563
 21
70.887083
 31
0.0
  0
LINE
  5
36F
102
{ACAD_XDICTIONARY
360
36D
102
}
330
1B
100
AcDbEntity
 67
     1
  8
0
  6
Continuous
 62
    18
420
  4980736
100
AcDbLine
 10
63.257563
 20
58.646965
 30
0.0
 11
63.257563
 21
65.847024
 31
0.0
  0
LINE
  5
372
102
{ACAD_XDICTIONARY
360
370
102
}
330
1B
100
AcDbEntity
 67
     1
  8
0
  6
Continuous
 62
    18
420
  4980736
100
AcDbLine
 10
63.257563
 20
58.646965
 30
0.0
 11
62.537563
 21
60.806965
 31
0.0
  0
LINE
  5
375
102
{ACAD_XDICTIONARY
360
373
102
}
330
1B
100
AcDbEntity
 67
     1
  8
0
  6
Continuous
 62
    18
420
  4980736
100
AcDbLine
 10
63.257563
 20
58.646965
 30
0.0
 11
63.977563
 21
60.806965
 31
0.0
  0
LINE
  5
378
102
{ACAD_XDICTIONARY
360
376
102
}
330
1B
100
AcDbEntity
 67
     1
  8
0
  6
Continuous
 62
    18
420
  4980736
100
AcDbLine
 10
74.430944
 20
73.047083
 30
0.0
 11
61.611646
 21
73.047083
 31
0.0
  0
LINE
  5
37B
102
{ACAD_XDICTIONARY
360
379
102
}
330
1B
100
AcDbEntity
 67
     1
  8
0
  6
Continuous
 62
    18
420
  4980736
100
AcDbLine
 10
65.934942
 20
58.646965
 30
0.0
 11
61.611646
 21
58.646965
 31
0.0
  0
TEXT
  5
37D
330
1B
100
AcDbEntity
 67
     1
  8
0
  6
Continuous
 62
    18
420
  4980736
100
AcDbText
 10
75.31892800064098
 20
91.87145201223397
 30
0.0
 40
2.304000079631805
  1
(29)
 50
-3.000000000000289
 41
1.618
  7
_TCW_TXTSTY_A
100
AcDbText
  0
LINE
  5
380
102
{ACAD_XDICTIONARY
360
37E
102
}
330
1B
100
AcDbEntity
 67
     1
  8
0
  6
Continuous
 62
    18
420
  4980736
100
AcDbLine
 10
83.732146
 20
90.853741
 30
0.0
 11
79.561867
 21
91.072297
 31
0.0
  0
LINE
  5
383
102
{ACAD_XDICTIONARY
360
381
102
}
330
1B
100
AcDbEntity
 67
     1
  8
0
  6
Continuous
 62
    18
420
  4980736
100
AcDbLine
 10
83.732146
 20
90.853741
 30
0.0
 11
81.537424
 21
90.247774
 31
0.0
  0
LINE
  5
386
102
{ACAD_XDICTIONARY
360
384
102
}
330
1B
100
AcDbEntity
 67
     1
  8
0
  6
Continuous
 62
    18
420
  4980736
100
AcDbLine
 10
83.732146
 20
90.853741
 30
0.0
 11
81.612787
 21
91.6858
 31
0.0
  0
LINE
  5
389
102
{ACAD_XDICTIONARY
360
387
102
}
330
1B
100
AcDbEntity
 67
     1
  8
0
  6
Continuous
 62
    18
420
  4980736
100
AcDbLine
 10
75.391589
 20
91.290854
 30
0.0
 11
79.561867
 21
91.072297
 31
0.0
  0
LINE
  5
38C
102
{ACAD_XDICTIONARY
360
38A
102
}
330
1B
100
AcDbEntity
 67
     1
  8
0
  6
Continuous
 62
    18
420
  4980736
100
AcDbLine
 10
75.391589
 20
91.290854
 30
0.0
 11
77.586311
 21
91.896821
 31
0.0
  0
LINE
  5
38F
102
{ACAD_XDICTIONARY
360
38D
102
}
330
1B
100
AcDbEntity
 67
     1
  8
0
  6
Continuous
 62
    18
420
  4980736
100
AcDbLine
 10
75.391589
 20
91.290854
 30
0.0
 11
77.510946
 21
90.458794
 31
0.0
  0
LINE
  5
392
102
{ACAD_XDICTIONARY
360
390
102
}
330
1B
100
AcDbEntity
 67
     1
  8
0
  6
Continuous
 62
    18
420
  4980736
100
AcDbLine
 10
83.152836
 20
79.799871
 30
0.0
 11
83.818278
 21
92.497405
 31
0.0
  0
LINE
  5
395
102
{ACAD_XDICTIONARY
360
393
102
}
330
1B
100
AcDbEntity
 67
     1
  8
0
  6
Continuous
 62
    18
420
  4980736
100
AcDbLine
 10
74.819816
 20
80.380781
 30
0.0
 11
75.477732
 21
92.934519
 31
0.0
  0
LINE
  5
398
102
{ACAD_XDICTIONARY
360
396
102
}
330
1B
100
AcDbEntity
 67
     1
  8
0
  6
Continuous
 62
    18
420
  4980736
100
AcDbLine
 10
68.395747
 20
73.363374
 30
0.0
 11
57.636441
 21
73.927248
 31
0.0
  0
LINE
  5
39B
102
{ACAD_XDICTIONARY
360
399
102
}
330
1B
100
AcDbEntity
 67
     1
  8
0
  6
Continuous
 62
    18
420
  4980736
100
AcDbLine
 10
61.611646
 20
73.047083
 30
0.0
 11
57.613392
 21
73.047083
 31
0.0
  0
ARC
  5
39E
102
{ACAD_XDICTIONARY
360
39C
102
}
330
1B
100
AcDbEntity
 67
     1
  8
0
  6
Continuous
 62
    18
420
  4980736
100
AcDbCircle
 10
74.430944
 20
73.047083
 30
0.0
 40
15.171632
100
AcDbArc
 50
160.685487
 51
176.999995
  0
ARC
  5
3A1
102
{ACAD_XDICTIONARY
360
39F
102
}
330
1B
100
AcDbEntity
 67
     1
  8
0
  6
Continuous
 62
    18
420
  4980736
100
AcDbCircle
 10
74.430944
 20
73.047083
 30
0.0
 40
15.171632
100
AcDbArc
 50
160.685487
 51
178.5
  0
LINE
  5
3A4
102
{ACAD_XDICTIONARY
360
3A2
102
}
330
1B
100
AcDbEntity
 67
     1
  8
0
  6
Continuous
 62
    18
420
  4980736
100
AcDbLine
 10
59.280105
 20
73.841106
 30
0.0
 11
58.693307
 21
76.041031
 31
0.0
  0
LINE
  5
3A7
102
{ACAD_XDICTIONARY
360
3A5
102
}
330
1B
100
AcDbEntity
 67
     1
  8
0
  6
Continuous
 62
    18
420
  4980736
100
AcDbLine
 10
59.280105
 20
73.841106
 30
0.0
 11
60.130622
 21
75.953125
 31
0.0
  0
ARC
  5
3AA
102
{ACAD_XDICTIONARY
360
3A8
102
}
330
1B
100
AcDbEntity
 67
     1
  8
0
  6
Continuous
 62
    18
420
  4980736
100
AcDbCircle
 10
74.430944
 20
73.047083
 30
0.0
 40
15.171632
100
AcDbArc
 50
180.0
 51
196.314517
  0
ARC
  5
3AD
102
{ACAD_XDICTIONARY
360
3AB
102
}
330
1B
100
AcDbEntity
 67
     1
  8
0
  6
Continuous
 62
    18
420
  4980736
100
AcDbCircle
 10
74.430944
 20
73.047083
 30
0.0
 40
15.171632
100
AcDbArc
 50
178.5
 51
196.314517
  0
LINE
  5
3B0
102
{ACAD_XDICTIONARY
360
3AE
102
}
330
1B
100
AcDbEntity
 67
     1
  8
0
  6
Continuous
 62
    18
420
  4980736
100
AcDbLine
 10
59.259308
 20
73.047083
 30
0.0
 11
59.998163
 21
70.89346
 31
0.0
  0
LINE
  5
3B3
102
{ACAD_XDICTIONARY
360
3B1
102
}
330
1B
100
AcDbEntity
 67
     1
  8
0
  6
Continuous
 62
    18
420
  4980736
100
AcDbLine
 10
59.259308
 20
73.047083
 30
0.0
 11
58.558219
 21
70.880872
 31
0.0
  0
TEXT
  5
3B5
330
1B
100
AcDbEntity
 67
     1
  8
0
  6
Continuous
 62
    18
420
  4980736
100
AcDbText
 10
59.17164698042504
 20
76.47779600681706
 30
0.0
 40
3.944095134735107
  1
５°
 50
70.79999900000136
 41
0.184
  7
_TCW_TXTSTY_B
100
AcDbText
  0
TEXT
  5
3B7
330
1B
100
AcDbEntity
 67
     1
  8
0
  6
Continuous
 62
    18
420
  4980736
100
AcDbText
 10
49.703939
 20
34.53232601225097
 30
0.0
 40
2.304000079631805
  1
Φ120
 41
0.839
  7
_TCW_TXTSTY_C
100
AcDbText
  0
MTEXT
  5
3BA
102
{ACAD_XDICTIONARY
360
3B8
102
}
330
1B
100
AcDbEntity
 67
     1
  8
0
  6
Continuous
 62
    18
420
  4980736
100
AcDbMText
 10
105.338598
 20
103.616007
 30
0.0
 40
2.304000079631805
 41
15.2064
 46
0.0
 71
     1
 72
     1
  1
機種　　\PFS100  355\PFS90   355\PGS100  285\PGS90   285\PGS76   285
  7
_TCW_TXTSTY_8
 11
6.123031769111886E-17
 21
1.0
 31
0.0
 73
     1
 44
1.0
  0
TEXT
  5
3BC
330
1B
100
AcDbEntity
 67
     1
  8
0
  6
Continuous
 62
    18
420
  4980736
100
AcDbText
 10
89.62409899882796
 20
82.90020000000504
 30
0.0
 40
2.307140007615089
  1
Φ50
 50
89.75171299999984
 41
0.865
  7
_TCW_TXTSTY_D
100
AcDbText
  0
LINE
  5
3BF
102
{ACAD_XDICTIONARY
360
3BD
102
}
330
1B
100
AcDbEntity
 67
     1
  8
0
  6
Continuous
 62
    18
420
  4980736
100
AcDbLine
 10
53.924463
 20
181.744396
 30
0.0
 11
53.924463
 21
190.384391
 31
0.0
  0
LINE
  5
3C2
102
{ACAD_XDICTIONARY
360
3C0
102
}
330
1B
100
AcDbEntity
 67
     1
  8
0
  6
Continuous
 62
    18
420
  4980736
100
AcDbLine
 10
53.924463
 20
181.744396
 30
0.0
 11
53.924463
 21
190.384391
 31
0.0
  0
MTEXT
  5
3C5
102
{ACAD_XDICTIONARY
360
3C3
102
}
330
1B
100
AcDbEntity
 67
     1
  8
0
  6
Continuous
 62
    18
420
  4980736
100
AcDbMText
 10
41.81780093567
 20
182.263406825732
 30
0.0
 40
2.374370962381363
 41
56.415054321289
 46
0.0
 71
     1
 72
     1
  1
口径(対応管）:対応機種\PΦ75（SU75）:GS75S　\PΦ90（VP75・VU75):FS90　 GS90\PΦ116（VP100・VU100）:FS100　GS100　
  7
_TCW_TXTSTY_8
 73
     1
 44
1.0
  0
LINE
  5
3C8
102
{ACAD_XDICTIONARY
360
3C6
102
}
330
1B
100
AcDbEntity
 67
     1
  8
0
  6
Continuous
 62
     7
100
AcDbLine
 10
52.641043
 20
184.559529
 30
0.0
 11
53.791691
 21
181.609258
 31
0.0
  0
LINE
  5
3CB
102
{ACAD_XDICTIONARY
360
3C9
102
}
330
1B
100
AcDbEntity
 67
     1
  8
0
  6
Continuous
 62
     7
100
AcDbLine
 10
53.835951
 20
181.668207
 30
0.0
 11
55.252137
 21
184.412067
 31
0.0
  0
LINE
  5
3CE
102
{ACAD_XDICTIONARY
360
3CC
102
}
330
1B
100
AcDbEntity
 67
     1
  8
0
  6
Continuous
 62
    18
420
  4980736
100
AcDbLine
 10
68.631431
 20
136.378758
 30
0.0
 11
93.766369
 21
136.378758
 31
0.0
  0
LINE
  5
3D1
102
{ACAD_XDICTIONARY
360
3CF
102
}
330
1B
100
AcDbEntity
 67
     1
  8
0
  6
Continuous
 62
    18
420
  4980736
100
AcDbLine
 10
90.404108
 20
136.245585
 30
0.0
 11
90.404108
 21
150.67379
 31
0.0
  0
LINE
  5
3D4
102
{ACAD_XDICTIONARY
360
3D2
102
}
330
1B
100
AcDbEntity
 67
     1
  8
0
  6
Continuous
 62
    18
420
  4980736
100
AcDbLine
 10
90.404108
 20
136.245585
 30
0.0
 11
89.390504
 21
139.852637
 31
0.0
  0
LINE
  5
3D7
102
{ACAD_XDICTIONARY
360
3D5
102
}
330
1B
100
AcDbEntity
 67
     1
  8
0
  6
Continuous
 62
    18
420
  4980736
100
AcDbLine
 10
90.404108
 20
136.245585
 30
0.0
 11
91.417717
 21
139.852627
 31
0.0
  0
TEXT
  5
3D9
330
1B
100
AcDbEntity
 67
     1
  8
0
  6
Continuous
 62
     7
100
AcDbText
 10
182.071649
 20
15.67797302272312
 30
0.0
 40
4.076399074660407
  1
A4
 41
1.3
  7
_TCW_TXTSTY_E
100
AcDbText
  0
MTEXT
  5
3DC
102
{ACAD_XDICTIONARY
360
3DA
102
}
330
1B
100
AcDbEntity
 67
     1
  8
0
  6
Continuous
 62
     7
100
AcDbMText
 10
180.936501441869
 20
31.829729020701
 30
0.0
 40
2.324948042631149
 41
53.706299
 46
0.0
 71
     1
 72
     1
  1
製品名：雨水コレクタ      ー\P機種名：FS100 FS90 GS100　GS90 GS76
  7
_TCW_TXTSTY_8
 73
     1
 44
1.0
  0
TEXT
  5
3DE
330
1B
100
AcDbEntity
 67
     1
  8
0
  6
Continuous
 62
     7
100
AcDbText
 10
180.767622
 20
38.95650498700103
 30
0.0
 40
2.30602091550827
  1
シップスレインワールド株式会社
 41
0.807
  7
_TCW_TXTSTY_F
100
AcDbText
  0
MTEXT
  5
3E1
102
{ACAD_XDICTIONARY
360
3DF
102
}
330
1B
100
AcDbEntity
 67
     1
  8
0
  6
Continuous
 62
     7
100
AcDbMText
 10
4.294273
 20
81.90095
 30
0.0
 40
2.272726908326149
 41
32.999996
 46
0.0
 71
     1
 72
     1
  1
フィルタ      ーメッシュ間隔\PFS　 0.28mm間隔\PGS 　0.44mm間隔 
  7
_TCW_TXTSTY_8
 73
     1
 44
1.0
  0
MTEXT
  5
3E4
102
{ACAD_XDICTIONARY
360
3E2
102
}
330
1B
100
AcDbEntity
 67
     1
  8
0
  6
Continuous
 62
    18
420
  4980736
100
AcDbMText
 10
174.100397
 20
67.964459
 30
0.0
 40
2.272726908326149
 41
86.999984741211
 46
0.0
 71
     1
 72
     1
  1
注）配管接続部詳細形状は現品でご確認ください。\Pトイのサイズが異なる場合は、別途アダプタ      が必要となります。\P材質：ステンレス SUS304相当　t=0.5mm\P製造：WISY　AG　（ドイツ製）
  7
_TCW_TXTSTY_8
 73
     1
 44
1.0
  0
TEXT
  5
3E6
330
1B
100
AcDbEntity
 67
     1
  8
0
  6
Continuous
 62
     7
100
AcDbText
 10
206.087592
 20
9.359666985896023
 30
0.0
 40
2.272726908326149
  1
Free
 41
0.89
  7
_TCW_TXTSTY_10
100
AcDbText
  0
MTEXT
  5
3E9
102
{ACAD_XDICTIONARY
360
3E7
102
}
330
1B
100
AcDbEntity
 67
     1
  8
0
  6
Continuous
 62
    18
420
  4980736
100
AcDbMText
 10
43.912745
 20
49.604739
 30
0.0
 40
2.304000079631805
 41
42.57792
 46
0.0
 71
     1
 72
     1
  1
Φ72　FS90 GS90　FS76　GS75S\PΦ96　FS100　GS100
  7
_TCW_TXTSTY_8
 73
     1
 44
1.0
  0
LINE
  5
3EC
102
{ACAD_XDICTIONARY
360
3EA
102
}
330
1B
100
AcDbEntity
 67
     1
  8
0
  6
Continuous
 62
     7
100
AcDbLine
 10
136.491986
 20
200.957522
 30
0.0
 11
136.491986
 21
213.72673
 31
0.0
  0
LINE
  5
3EF
102
{ACAD_XDICTIONARY
360
3ED
102
}
330
1B
100
AcDbEntity
 67
     1
  8
0
  6
Continuous
 62
     7
100
AcDbLine
 10
134.170312
 20
6.323838
 30
0.0
 11
134.170312
 21
-6.44537
 31
0.0
  0
LINE
  5
3F2
102
{ACAD_XDICTIONARY
360
3F0
102
}
330
1B
100
AcDbEntity
 67
     1
  8
0
  6
Continuous
 62
     7
100
AcDbLine
 10
282.370513
 20
109.638338
 30
0.0
 11
287.304064
 21
109.638338
 31
0.0
  0
LINE
  5
3F5
102
{ACAD_XDICTIONARY
360
3F3
102
}
330
1B
100
AcDbEntity
 67
     1
  8
0
  6
Continuous
 62
     7
100
AcDbLine
 10
-0.051481
 20
109.251377
 30
0.0
 11
-6.242612
 21
109.251377
 31
0.0
  0
LINE
  5
3F8
102
{ACAD_XDICTIONARY
360
3F6
102
}
330
1B
100
AcDbEntity
 67
     1
  8
0
  6
Continuous
 62
     7
370
     0
100
AcDbLine
 10
197.5474835782044
 20
39.93480561512189
 30
0.0
 11
197.5474835782044
 21
39.93480561512189
 31
0.0
  0
LINE
  5
3FB
102
{ACAD_REACTORS
330
43F
102
}
102
{ACAD_XDICTIONARY
360
3F9
102
}
330
1B
100
AcDbEntity
 67
     1
  8
0
  6
Continuous
 62
     7
100
AcDbLine
 10
263.218832
 20
9.8722
 30
0.0
 11
263.218832
 21
14.118047
 31
0.0
  0
LINE
  5
3FE
102
{ACAD_REACTORS
330
43F
102
}
102
{ACAD_XDICTIONARY
360
3FC
102
}
330
1B
100
AcDbEntity
 67
     1
  8
0
  6
Continuous
 62
     7
100
AcDbLine
 10
263.218832
 20
14.118047
 30
0.0
 11
263.218832
 21
21.194459
 31
0.0
  0
LINE
  5
401
102
{ACAD_REACTORS
330
43F
102
}
102
{ACAD_XDICTIONARY
360
3FF
102
}
330
1B
100
AcDbEntity
 67
     1
  8
0
  6
Continuous
 62
     7
100
AcDbLine
 10
263.218832
 20
21.194459
 30
0.0
 11
263.218832
 21
35.347286
 31
0.0
  0
LINE
  5
404
102
{ACAD_REACTORS
330
43F
102
}
102
{ACAD_XDICTIONARY
360
402
102
}
330
1B
100
AcDbEntity
 67
     1
  8
0
  6
Continuous
 62
     7
100
AcDbLine
 10
263.218832
 20
35.347286
 30
0.0
 11
263.218832
 21
48.084828
 31
0.0
  0
LINE
  5
407
102
{ACAD_REACTORS
330
43F
102
}
102
{ACAD_XDICTIONARY
360
405
102
}
330
1B
100
AcDbEntity
 67
     1
  8
0
  6
Continuous
 62
     7
100
AcDbLine
 10
176.551232
 20
9.8722
 30
0.0
 11
176.551232
 21
48.084828
 31
0.0
  0
LINE
  5
40A
102
{ACAD_REACTORS
330
43F
102
}
102
{ACAD_XDICTIONARY
360
408
102
}
330
1B
100
AcDbEntity
 67
     1
  8
0
100
AcDbLine
 10
137.156868
 20
9.8722
 30
0.0
 11
137.156868
 21
48.084828
 31
0.0
  0
LINE
  5
40D
102
{ACAD_REACTORS
330
43F
102
}
102
{ACAD_XDICTIONARY
360
40B
102
}
330
1B
100
AcDbEntity
 67
     1
  8
0
  6
Continuous
 62
     7
100
AcDbLine
 10
137.156868
 20
9.8722
 30
0.0
 11
176.551232
 21
9.8722
 31
0.0
  0
LINE
  5
410
102
{ACAD_REACTORS
330
43F
102
}
102
{ACAD_XDICTIONARY
360
40E
102
}
330
1B
100
AcDbEntity
 67
     1
  8
0
  6
Continuous
 62
     7
100
AcDbLine
 10
176.551232
 20
9.8722
 30
0.0
 11
263.218832
 21
9.8722
 31
0.0
  0
LINE
  5
413
102
{ACAD_REACTORS
330
43F
102
}
102
{ACAD_XDICTIONARY
360
411
102
}
330
1B
100
AcDbEntity
 67
     1
  8
0
  6
Continuous
 62
     7
100
AcDbLine
 10
137.156868
 20
48.084828
 30
0.0
 11
263.218832
 21
48.084828
 31
0.0
  0
LINE
  5
416
102
{ACAD_REACTORS
330
43F
102
}
102
{ACAD_XDICTIONARY
360
414
102
}
330
1B
100
AcDbEntity
 67
     1
  8
0
  6
Continuous
 62
     7
100
AcDbLine
 10
176.551232
 20
35.347286
 30
0.0
 11
263.218832
 21
35.347286
 31
0.0
  0
LINE
  5
419
102
{ACAD_REACTORS
330
43F
102
}
102
{ACAD_XDICTIONARY
360
417
102
}
330
1B
100
AcDbEntity
 67
     1
  8
0
  6
Continuous
 62
     7
100
AcDbLine
 10
176.551232
 20
21.194459
 30
0.0
 11
263.218832
 21
21.194459
 31
0.0
  0
LINE
  5
41C
102
{ACAD_REACTORS
330
43F
102
}
102
{ACAD_XDICTIONARY
360
41A
102
}
330
1B
100
AcDbEntity
 67
     1
  8
0
  6
Continuous
 62
     7
100
AcDbLine
 10
176.551232
 20
14.118047
 30
0.0
 11
263.218832
 21
14.118047
 31
0.0
  0
LINE
  5
41F
102
{ACAD_REACTORS
330
43F
102
}
102
{ACAD_XDICTIONARY
360
41D
102
}
330
1B
100
AcDbEntity
 67
     1
  8
0
  6
Continuous
 62
     7
100
AcDbLine
 10
227.763905
 20
9.8722
 30
0.0
 11
227.763905
 21
14.118047
 31
0.0
  0
LINE
  5
422
102
{ACAD_REACTORS
330
43F
102
}
102
{ACAD_XDICTIONARY
360
420
102
}
330
1B
100
AcDbEntity
 67
     1
  8
0
  6
Continuous
 62
     7
100
AcDbLine
 10
200.18785
 20
9.8722
 30
0.0
 11
200.18785
 21
14.118047
 31
0.0
  0
LINE
  5
425
102
{ACAD_REACTORS
330
43F
102
}
102
{ACAD_XDICTIONARY
360
423
102
}
330
1B
100
AcDbEntity
 67
     1
  8
0
  6
DASHED
 62
     7
 48
0.125
100
AcDbLine
 10
255.33996
 20
14.118047
 30
0.0
 11
255.33996
 21
21.194459
 31
0.0
  0
LINE
  5
428
102
{ACAD_REACTORS
330
43F
102
}
102
{ACAD_XDICTIONARY
360
426
102
}
330
1B
100
AcDbEntity
 67
     1
  8
0
  6
Continuous
 62
     7
100
AcDbLine
 10
208.066723
 20
14.118047
 30
0.0
 11
208.066723
 21
21.194459
 31
0.0
  0
LINE
  5
42B
102
{ACAD_REACTORS
330
43F
102
}
102
{ACAD_XDICTIONARY
360
429
102
}
330
1B
100
AcDbEntity
 67
     1
  8
0
  6
Continuous
 62
     7
100
AcDbLine
 10
188.369541
 20
14.118047
 30
0.0
 11
188.369541
 21
21.194459
 31
0.0
  0
LINE
  5
42E
102
{ACAD_REACTORS
330
43F
102
}
102
{ACAD_XDICTIONARY
360
42C
102
}
330
1B
100
AcDbEntity
 67
     1
  8
0
  6
DASHED
 62
     7
 48
0.125
100
AcDbLine
 10
137.156868
 20
14.118047
 30
0.0
 11
176.551232
 21
14.118047
 31
0.0
  0
LINE
  5
431
102
{ACAD_REACTORS
330
43F
102
}
102
{ACAD_XDICTIONARY
360
42F
102
}
330
1B
100
AcDbEntity
 67
     1
  8
0
  6
DASHED
 62
     7
 48
0.125
100
AcDbLine
 10
137.156868
 20
18.363895
 30
0.0
 11
176.551232
 21
18.363895
 31
0.0
  0
TEXT
  5
433
102
{ACAD_REACTORS
330
43F
102
}
330
1B
100
AcDbEntity
 67
     1
  8
0
  6
Continuous
 62
     7
100
AcDbText
 10
176.551232
 20
12.30815599907094
 30
0.0
 40
1.435430996947818
  1
 SCALE
 41
1.242
  7
_TCW_TXTSTY_11
100
AcDbText
  0
TEXT
  5
435
102
{ACAD_REACTORS
330
43F
102
}
330
1B
100
AcDbEntity
 67
     1
  8
0
  6
Continuous
 62
     7
100
AcDbText
 10
176.551232
 20
19.38456897890499
 30
0.0
 40
1.435429930686951
  1
 SIZE
 41
1.282
  7
_TCW_TXTSTY_12
100
AcDbText
  0
TEXT
  5
437
102
{ACAD_REACTORS
330
43F
102
}
330
1B
100
AcDbEntity
 67
     1
  8
0
  6
Continuous
 62
     7
100
AcDbText
 10
188.369541
 20
19.38456897890499
 30
0.0
 40
1.435429930686951
  1
 CAGE CODE
 41
1.191
  7
_TCW_TXTSTY_13
100
AcDbText
  0
TEXT
  5
438
102
{ACAD_REACTORS
330
43F
102
}
330
1B
100
AcDbEntity
 67
     1
  8
0
  6
Continuous
 62
     7
100
AcDbText
 10
208.066723
 20
19.38456897890499
 30
0.0
 40
1.435429930686951
  1
 DWG NO
 41
1.198
  7
_TCW_TXTSTY_13
100
AcDbText
  0
TEXT
  5
43A
102
{ACAD_REACTORS
330
43F
102
}
330
1B
100
AcDbEntity
 67
     1
  8
0
  6
Continuous
 62
     7
100
AcDbText
 10
227.763905
 20
12.30815599907094
 30
0.0
 40
1.435430996947818
  1
 SHEET
 41
1.173
  7
_TCW_TXTSTY_14
100
AcDbText
  0
TEXT
  5
43C
102
{ACAD_REACTORS
330
43F
102
}
330
1B
100
AcDbEntity
 67
     1
  8
0
  6
Continuous
 62
     7
100
AcDbText
 10
255.33996
 20
19.38456897890499
 30
0.0
 40
1.435429930686951
  1
 REV
 41
1.15
  7
_TCW_TXTSTY_15
100
AcDbText
  0
TEXT
  5
43E
102
{ACAD_REACTORS
330
43F
102
}
330
1B
100
AcDbEntity
 67
     1
  8
0
  6
Continuous
 62
     7
100
AcDbText
 10
176.551232
 20
33.53739497890498
 30
0.0
 40
1.435429930686951
  1
 TITLE
 41
1.258
  7
_TCW_TXTSTY_16
100
AcDbText
  0
ENDSEC
  0
SECTION
  2
OBJECTS
  0
DICTIONARY
  5
C
330
0
100
AcDbDictionary
281
     1
  3
ACAD_GROUP
350
D
  3
ACAD_LAYOUT
350
1A
  3
ACAD_MLEADERSTYLE
350
440
  3
ACAD_MLINESTYLE
350
17
  3
ACAD_PLOTSETTINGS
350
19
  3
ACAD_PLOTSTYLENAME
350
E
  3
ACAD_SCALELIST
350
3B
  3
ACAD_TABLESTYLE
350
86
  3
ACAD_VISUALSTYLE
350
2A
  0
DICTIONARY
  5
8C
330
8E
100
AcDbDictionary
280
     1
281
     1
  3
TC_OPTIONAL_DATA
360
8D
  0
DICTIONARY
  5
8F
330
91
100
AcDbDictionary
280
     1
281
     1
  3
TC_OPTIONAL_DATA
360
90
  0
DICTIONARY
  5
92
330
94
100
AcDbDictionary
280
     1
281
     1
  3
TC_OPTIONAL_DATA
360
93
  0
DICTIONARY
  5
95
330
97
100
AcDbDictionary
280
     1
281
     1
  3
TC_OPTIONAL_DATA
360
96
  0
DICTIONARY
  5
98
330
9A
100
AcDbDictionary
280
     1
281
     1
  3
TC_OPTIONAL_DATA
360
99
  0
DICTIONARY
  5
9B
330
9D
100
AcDbDictionary
280
     1
281
     1
  3
TC_OPTIONAL_DATA
360
9C
  0
DICTIONARY
  5
9E
330
A0
100
AcDbDictionary
280
     1
281
     1
  3
TC_OPTIONAL_DATA
360
9F
  0
DICTIONARY
  5
A1
330
A3
100
AcDbDictionary
280
     1
281
     1
  3
TC_OPTIONAL_DATA
360
A2
  0
DICTIONARY
  5
A4
330
A6
100
AcDbDictionary
280
     1
281
     1
  3
TC_OPTIONAL_DATA
360
A5
  0
DICTIONARY
  5
A7
330
A9
100
AcDbDictionary
280
     1
281
     1
  3
TC_OPTIONAL_DATA
360
A8
  0
DICTIONARY
  5
AA
330
AC
100
AcDbDictionary
280
     1
281
     1
  3
TC_OPTIONAL_DATA
360
AB
  0
DICTIONARY
  5
AD
330
AF
100
AcDbDictionary
280
     1
281
     1
  3
TC_OPTIONAL_DATA
360
AE
  0
DICTIONARY
  5
B0
330
B2
100
AcDbDictionary
280
     1
281
     1
  3
TC_OPTIONAL_DATA
360
B1
  0
DICTIONARY
  5
B3
330
B5
100
AcDbDictionary
280
     1
281
     1
  3
TC_OPTIONAL_DATA
360
B4
  0
DICTIONARY
  5
B6
330
B8
100
AcDbDictionary
280
     1
281
     1
  3
TC_OPTIONAL_DATA
360
B7
  0
DICTIONARY
  5
B9
330
BB
100
AcDbDictionary
280
     1
281
     1
  3
TC_OPTIONAL_DATA
360
BA
  0
DICTIONARY
  5
BC
330
BE
100
AcDbDictionary
280
     1
281
     1
  3
TC_OPTIONAL_DATA
360
BD
  0
DICTIONARY
  5
BF
330
C1
100
AcDbDictionary
280
     1
281
     1
  3
TC_OPTIONAL_DATA
360
C0
  0
DICTIONARY
  5
C2
330
C4
100
AcDbDictionary
280
     1
281
     1
  3
TC_OPTIONAL_DATA
360
C3
  0
DICTIONARY
  5
C5
330
C7
100
AcDbDictionary
280
     1
281
     1
  3
TC_OPTIONAL_DATA
360
C6
  0
DICTIONARY
  5
C8
330
CA
100
AcDbDictionary
280
     1
281
     1
  3
TC_OPTIONAL_DATA
360
C9
  0
DICTIONARY
  5
CB
330
CD
100
AcDbDictionary
280
     1
281
     1
  3
TC_OPTIONAL_DATA
360
CC
  0
DICTIONARY
  5
CE
330
D0
100
AcDbDictionary
280
     1
281
     1
  3
TC_OPTIONAL_DATA
360
CF
  0
DICTIONARY
  5
D1
330
D3
100
AcDbDictionary
280
     1
281
     1
  3
TC_OPTIONAL_DATA
360
D2
  0
DICTIONARY
  5
D4
330
D6
100
AcDbDictionary
280
     1
281
     1
  3
TC_OPTIONAL_DATA
360
D5
  0
DICTIONARY
  5
D7
330
D9
100
AcDbDictionary
280
     1
281
     1
  3
TC_OPTIONAL_DATA
360
D8
  0
DICTIONARY
  5
DA
330
DC
100
AcDbDictionary
280
     1
281
     1
  3
TC_OPTIONAL_DATA
360
DB
  0
DICTIONARY
  5
DD
330
DF
100
AcDbDictionary
280
     1
281
     1
  3
TC_OPTIONAL_DATA
360
DE
  0
DICTIONARY
  5
E0
330
E2
100
AcDbDictionary
280
     1
281
     1
  3
TC_OPTIONAL_DATA
360
E1
  0
DICTIONARY
  5
E3
330
E5
100
AcDbDictionary
280
     1
281
     1
  3
TC_OPTIONAL_DATA
360
E4
  0
DICTIONARY
  5
E6
330
E8
100
AcDbDictionary
280
     1
281
     1
  3
TC_OPTIONAL_DATA
360
E7
  0
DICTIONARY
  5
E9
330
EB
100
AcDbDictionary
280
     1
281
     1
  3
TC_OPTIONAL_DATA
360
EA
  0
DICTIONARY
  5
EC
330
EE
100
AcDbDictionary
280
     1
281
     1
  3
TC_OPTIONAL_DATA
360
ED
  0
DICTIONARY
  5
EF
330
F1
100
AcDbDictionary
280
     1
281
     1
  3
TC_OPTIONAL_DATA
360
F0
  0
DICTIONARY
  5
F2
330
F4
100
AcDbDictionary
280
     1
281
     1
  3
TC_OPTIONAL_DATA
360
F3
  0
DICTIONARY
  5
F5
330
F7
100
AcDbDictionary
280
     1
281
     1
  3
TC_OPTIONAL_DATA
360
F6
  0
DICTIONARY
  5
F8
330
FA
100
AcDbDictionary
280
     1
281
     1
  3
TC_OPTIONAL_DATA
360
F9
  0
DICTIONARY
  5
FB
330
FD
100
AcDbDictionary
280
     1
281
     1
  3
TC_OPTIONAL_DATA
360
FC
  0
DICTIONARY
  5
FE
330
100
100
AcDbDictionary
280
     1
281
     1
  3
TC_OPTIONAL_DATA
360
FF
  0
DICTIONARY
  5
101
330
103
100
AcDbDictionary
280
     1
281
     1
  3
TC_OPTIONAL_DATA
360
102
  0
DICTIONARY
  5
104
330
106
100
AcDbDictionary
280
     1
281
     1
  3
TC_OPTIONAL_DATA
360
105
  0
DICTIONARY
  5
107
330
109
100
AcDbDictionary
280
     1
281
     1
  3
TC_OPTIONAL_DATA
360
108
  0
DICTIONARY
  5
10A
330
10C
100
AcDbDictionary
280
     1
281
     1
  3
TC_OPTIONAL_DATA
360
10B
  0
DICTIONARY
  5
10D
330
10F
100
AcDbDictionary
280
     1
281
     1
  3
TC_OPTIONAL_DATA
360
10E
  0
DICTIONARY
  5
110
330
112
100
AcDbDictionary
280
     1
281
     1
  3
TC_OPTIONAL_DATA
360
111
  0
DICTIONARY
  5
113
330
115
100
AcDbDictionary
280
     1
281
     1
  3
TC_OPTIONAL_DATA
360
114
  0
DICTIONARY
  5
116
330
118
100
AcDbDictionary
280
     1
281
     1
  3
TC_OPTIONAL_DATA
360
117
  0
DICTIONARY
  5
119
330
11B
100
AcDbDictionary
280
     1
281
     1
  3
TC_OPTIONAL_DATA
360
11A
  0
DICTIONARY
  5
11C
330
11E
100
AcDbDictionary
280
     1
281
     1
  3
TC_OPTIONAL_DATA
360
11D
  0
DICTIONARY
  5
11F
330
121
100
AcDbDictionary
280
     1
281
     1
  3
TC_OPTIONAL_DATA
360
120
  0
DICTIONARY
  5
122
330
124
100
AcDbDictionary
280
     1
281
     1
  3
TC_OPTIONAL_DATA
360
123
  0
DICTIONARY
  5
125
330
127
100
AcDbDictionary
280
     1
281
     1
  3
TC_OPTIONAL_DATA
360
126
  0
DICTIONARY
  5
128
330
12A
100
AcDbDictionary
280
     1
281
     1
  3
TC_OPTIONAL_DATA
360
129
  0
DICTIONARY
  5
12B
330
12D
100
AcDbDictionary
280
     1
281
     1
  3
TC_OPTIONAL_DATA
360
12C
  0
DICTIONARY
  5
12E
330
130
100
AcDbDictionary
280
     1
281
     1
  3
TC_OPTIONAL_DATA
360
12F
  0
DICTIONARY
  5
131
330
133
100
AcDbDictionary
280
     1
281
     1
  3
TC_OPTIONAL_DATA
360
132
  0
DICTIONARY
  5
134
330
136
100
AcDbDictionary
280
     1
281
     1
  3
TC_OPTIONAL_DATA
360
135
  0
DICTIONARY
  5
137
330
139
100
AcDbDictionary
280
     1
281
     1
  3
TC_OPTIONAL_DATA
360
138
  0
DICTIONARY
  5
13A
330
13C
100
AcDbDictionary
280
     1
281
     1
  3
TC_OPTIONAL_DATA
360
13B
  0
DICTIONARY
  5
13D
330
13F
100
AcDbDictionary
280
     1
281
     1
  3
TC_OPTIONAL_DATA
360
13E
  0
DICTIONARY
  5
140
330
142
100
AcDbDictionary
280
     1
281
     1
  3
TC_OPTIONAL_DATA
360
141
  0
DICTIONARY
  5
143
330
145
100
AcDbDictionary
280
     1
281
     1
  3
TC_OPTIONAL_DATA
360
144
  0
DICTIONARY
  5
146
330
148
100
AcDbDictionary
280
     1
281
     1
  3
TC_OPTIONAL_DATA
360
147
  0
DICTIONARY
  5
149
330
14B
100
AcDbDictionary
280
     1
281
     1
  3
TC_OPTIONAL_DATA
360
14A
  0
DICTIONARY
  5
14C
330
14E
100
AcDbDictionary
280
     1
281
     1
  3
TC_OPTIONAL_DATA
360
14D
  0
DICTIONARY
  5
14F
330
151
100
AcDbDictionary
280
     1
281
     1
  3
TC_OPTIONAL_DATA
360
150
  0
DICTIONARY
  5
152
330
154
100
AcDbDictionary
280
     1
281
     1
  3
TC_OPTIONAL_DATA
360
153
  0
DICTIONARY
  5
155
330
157
100
AcDbDictionary
280
     1
281
     1
  3
TC_OPTIONAL_DATA
360
156
  0
DICTIONARY
  5
158
330
15A
100
AcDbDictionary
280
     1
281
     1
  3
TC_OPTIONAL_DATA
360
159
  0
DICTIONARY
  5
15B
330
15D
100
AcDbDictionary
280
     1
281
     1
  3
TC_OPTIONAL_DATA
360
15C
  0
DICTIONARY
  5
15E
330
160
100
AcDbDictionary
280
     1
281
     1
  3
TC_OPTIONAL_DATA
360
15F
  0
DICTIONARY
  5
161
330
163
100
AcDbDictionary
280
     1
281
     1
  3
TC_OPTIONAL_DATA
360
162
  0
DICTIONARY
  5
164
330
166
100
AcDbDictionary
280
     1
281
     1
  3
TC_OPTIONAL_DATA
360
165
  0
DICTIONARY
  5
167
330
169
100
AcDbDictionary
280
     1
281
     1
  3
TC_OPTIONAL_DATA
360
168
  0
DICTIONARY
  5
16A
330
16C
100
AcDbDictionary
280
     1
281
     1
  3
TC_OPTIONAL_DATA
360
16B
  0
DICTIONARY
  5
16D
330
16F
100
AcDbDictionary
280
     1
281
     1
  3
TC_OPTIONAL_DATA
360
16E
  0
DICTIONARY
  5
170
330
172
100
AcDbDictionary
280
     1
281
     1
  3
TC_OPTIONAL_DATA
360
171
  0
DICTIONARY
  5
173
330
175
100
AcDbDictionary
280
     1
281
     1
  3
TC_OPTIONAL_DATA
360
174
  0
DICTIONARY
  5
176
330
178
100
AcDbDictionary
280
     1
281
     1
  3
TC_OPTIONAL_DATA
360
177
  0
DICTIONARY
  5
179
330
17B
100
AcDbDictionary
280
     1
281
     1
  3
TC_OPTIONAL_DATA
360
17A
  0
DICTIONARY
  5
17C
330
17E
100
AcDbDictionary
280
     1
281
     1
  3
TC_OPTIONAL_DATA
360
17D
  0
DICTIONARY
  5
17F
330
181
100
AcDbDictionary
280
     1
281
     1
  3
TC_OPTIONAL_DATA
360
180
  0
DICTIONARY
  5
182
330
184
100
AcDbDictionary
280
     1
281
     1
  3
TC_OPTIONAL_DATA
360
183
  0
DICTIONARY
  5
185
330
187
100
AcDbDictionary
280
     1
281
     1
  3
TC_OPTIONAL_DATA
360
186
  0
DICTIONARY
  5
188
330
18A
100
AcDbDictionary
280
     1
281
     1
  3
TC_OPTIONAL_DATA
360
189
  0
DICTIONARY
  5
18B
330
18D
100
AcDbDictionary
280
     1
281
     1
  3
TC_OPTIONAL_DATA
360
18C
  0
DICTIONARY
  5
18E
330
190
100
AcDbDictionary
280
     1
281
     1
  3
TC_OPTIONAL_DATA
360
18F
  0
DICTIONARY
  5
191
330
193
100
AcDbDictionary
280
     1
281
     1
  3
TC_OPTIONAL_DATA
360
192
  0
DICTIONARY
  5
194
330
196
100
AcDbDictionary
280
     1
281
     1
  3
TC_OPTIONAL_DATA
360
195
  0
DICTIONARY
  5
197
330
199
100
AcDbDictionary
280
     1
281
     1
  3
TC_OPTIONAL_DATA
360
198
  0
DICTIONARY
  5
19A
330
19C
100
AcDbDictionary
280
     1
281
     1
  3
TC_OPTIONAL_DATA
360
19B
  0
DICTIONARY
  5
19D
330
19F
100
AcDbDictionary
280
     1
281
     1
  3
TC_OPTIONAL_DATA
360
19E
  0
DICTIONARY
  5
1A0
330
1A2
100
AcDbDictionary
280
     1
281
     1
  3
TC_OPTIONAL_DATA
360
1A1
  0
DICTIONARY
  5
1A3
330
1A5
100
AcDbDictionary
280
     1
281
     1
  3
TC_OPTIONAL_DATA
360
1A4
  0
DICTIONARY
  5
1A6
330
1A8
100
AcDbDictionary
280
     1
281
     1
  3
TC_OPTIONAL_DATA
360
1A7
  0
DICTIONARY
  5
1A9
330
1AB
100
AcDbDictionary
280
     1
281
     1
  3
TC_OPTIONAL_DATA
360
1AA
  0
DICTIONARY
  5
1AC
330
1AE
100
AcDbDictionary
280
     1
281
     1
  3
TC_OPTIONAL_DATA
360
1AD
  0
DICTIONARY
  5
1AF
330
1B1
100
AcDbDictionary
280
     1
281
     1
  3
TC_OPTIONAL_DATA
360
1B0
  0
DICTIONARY
  5
1B2
330
1B4
100
AcDbDictionary
280
     1
281
     1
  3
TC_OPTIONAL_DATA
360
1B3
  0
DICTIONARY
  5
1B5
330
1B7
100
AcDbDictionary
280
     1
281
     1
  3
TC_OPTIONAL_DATA
360
1B6
  0
DICTIONARY
  5
1B8
330
1BA
100
AcDbDictionary
280
     1
281
     1
  3
TC_OPTIONAL_DATA
360
1B9
  0
DICTIONARY
  5
1BB
330
1BD
100
AcDbDictionary
280
     1
281
     1
  3
TC_OPTIONAL_DATA
360
1BC
  0
DICTIONARY
  5
1BE
330
1C0
100
AcDbDictionary
280
     1
281
     1
  3
TC_OPTIONAL_DATA
360
1BF
  0
DICTIONARY
  5
1C1
330
1C3
100
AcDbDictionary
280
     1
281
     1
  3
TC_OPTIONAL_DATA
360
1C2
  0
DICTIONARY
  5
1C4
330
1C6
100
AcDbDictionary
280
     1
281
     1
  3
TC_OPTIONAL_DATA
360
1C5
  0
DICTIONARY
  5
1C7
330
1C9
100
AcDbDictionary
280
     1
281
     1
  3
TC_OPTIONAL_DATA
360
1C8
  0
DICTIONARY
  5
1CA
330
1CC
100
AcDbDictionary
280
     1
281
     1
  3
TC_OPTIONAL_DATA
360
1CB
  0
DICTIONARY
  5
1CD
330
1CF
100
AcDbDictionary
280
     1
281
     1
  3
TC_OPTIONAL_DATA
360
1CE
  0
DICTIONARY
  5
1D0
330
1D2
100
AcDbDictionary
280
     1
281
     1
  3
TC_OPTIONAL_DATA
360
1D1
  0
DICTIONARY
  5
1D3
330
1D5
100
AcDbDictionary
280
     1
281
     1
  3
TC_OPTIONAL_DATA
360
1D4
  0
DICTIONARY
  5
1D6
330
1D8
100
AcDbDictionary
280
     1
281
     1
  3
TC_OPTIONAL_DATA
360
1D7
  0
DICTIONARY
  5
1D9
330
1DB
100
AcDbDictionary
280
     1
281
     1
  3
TC_OPTIONAL_DATA
360
1DA
  0
DICTIONARY
  5
1DC
330
1DE
100
AcDbDictionary
280
     1
281
     1
  3
TC_OPTIONAL_DATA
360
1DD
  0
DICTIONARY
  5
1DF
330
1E1
100
AcDbDictionary
280
     1
281
     1
  3
TC_OPTIONAL_DATA
360
1E0
  0
DICTIONARY
  5
1E2
330
1E4
100
AcDbDictionary
280
     1
281
     1
  3
TC_OPTIONAL_DATA
360
1E3
  0
DICTIONARY
  5
1E5
330
1E7
100
AcDbDictionary
280
     1
281
     1
  3
TC_OPTIONAL_DATA
360
1E6
  0
DICTIONARY
  5
1E8
330
1EA
100
AcDbDictionary
280
     1
281
     1
  3
TC_OPTIONAL_DATA
360
1E9
  0
DICTIONARY
  5
1EB
330
1ED
100
AcDbDictionary
280
     1
281
     1
  3
TC_OPTIONAL_DATA
360
1EC
  0
DICTIONARY
  5
1EE
330
1F0
100
AcDbDictionary
280
     1
281
     1
  3
TC_OPTIONAL_DATA
360
1EF
  0
DICTIONARY
  5
1F1
330
1F3
100
AcDbDictionary
280
     1
281
     1
  3
TC_OPTIONAL_DATA
360
1F2
  0
DICTIONARY
  5
1F4
330
1F6
100
AcDbDictionary
280
     1
281
     1
  3
TC_OPTIONAL_DATA
360
1F5
  0
DICTIONARY
  5
1F7
330
1F9
100
AcDbDictionary
280
     1
281
     1
  3
TC_OPTIONAL_DATA
360
1F8
  0
DICTIONARY
  5
1FA
330
1FC
100
AcDbDictionary
280
     1
281
     1
  3
TC_OPTIONAL_DATA
360
1FB
  0
DICTIONARY
  5
1FD
330
1FF
100
AcDbDictionary
280
     1
281
     1
  3
TC_OPTIONAL_DATA
360
1FE
  0
DICTIONARY
  5
200
330
202
100
AcDbDictionary
280
     1
281
     1
  3
TC_OPTIONAL_DATA
360
201
  0
DICTIONARY
  5
203
330
205
100
AcDbDictionary
280
     1
281
     1
  3
TC_OPTIONAL_DATA
360
204
  0
DICTIONARY
  5
206
330
208
100
AcDbDictionary
280
     1
281
     1
  3
TC_OPTIONAL_DATA
360
207
  0
DICTIONARY
  5
209
330
20B
100
AcDbDictionary
280
     1
281
     1
  3
TC_OPTIONAL_DATA
360
20A
  0
DICTIONARY
  5
20C
330
20E
100
AcDbDictionary
280
     1
281
     1
  3
TC_OPTIONAL_DATA
360
20D
  0
DICTIONARY
  5
20F
330
211
100
AcDbDictionary
280
     1
281
     1
  3
TC_OPTIONAL_DATA
360
210
  0
DICTIONARY
  5
212
330
214
100
AcDbDictionary
280
     1
281
     1
  3
TC_OPTIONAL_DATA
360
213
  0
DICTIONARY
  5
215
330
217
100
AcDbDictionary
280
     1
281
     1
  3
TC_OPTIONAL_DATA
360
216
  0
DICTIONARY
  5
218
330
21A
100
AcDbDictionary
280
     1
281
     1
  3
TC_OPTIONAL_DATA
360
219
  0
DICTIONARY
  5
21B
330
21D
100
AcDbDictionary
280
     1
281
     1
  3
TC_OPTIONAL_DATA
360
21C
  0
DICTIONARY
  5
21E
330
220
100
AcDbDictionary
280
     1
281
     1
  3
TC_OPTIONAL_DATA
360
21F
  0
DICTIONARY
  5
221
330
223
100
AcDbDictionary
280
     1
281
     1
  3
TC_OPTIONAL_DATA
360
222
  0
DICTIONARY
  5
224
330
226
100
AcDbDictionary
280
     1
281
     1
  3
TC_OPTIONAL_DATA
360
225
  0
DICTIONARY
  5
227
330
229
100
AcDbDictionary
280
     1
281
     1
  3
TC_OPTIONAL_DATA
360
228
  0
DICTIONARY
  5
22A
330
22C
100
AcDbDictionary
280
     1
281
     1
  3
TC_OPTIONAL_DATA
360
22B
  0
DICTIONARY
  5
22D
330
22F
100
AcDbDictionary
280
     1
281
     1
  3
TC_OPTIONAL_DATA
360
22E
  0
DICTIONARY
  5
230
330
232
100
AcDbDictionary
280
     1
281
     1
  3
TC_OPTIONAL_DATA
360
231
  0
DICTIONARY
  5
233
330
235
100
AcDbDictionary
280
     1
281
     1
  3
TC_OPTIONAL_DATA
360
234
  0
DICTIONARY
  5
236
330
238
100
AcDbDictionary
280
     1
281
     1
  3
TC_OPTIONAL_DATA
360
237
  0
DICTIONARY
  5
239
330
23B
100
AcDbDictionary
280
     1
281
     1
  3
TC_OPTIONAL_DATA
360
23A
  0
DICTIONARY
  5
23C
330
23E
100
AcDbDictionary
280
     1
281
     1
  3
TC_OPTIONAL_DATA
360
23D
  0
DICTIONARY
  5
23F
330
241
100
AcDbDictionary
280
     1
281
     1
  3
TC_OPTIONAL_DATA
360
240
  0
DICTIONARY
  5
242
330
244
100
AcDbDictionary
280
     1
281
     1
  3
TC_OPTIONAL_DATA
360
243
  0
DICTIONARY
  5
245
330
247
100
AcDbDictionary
280
     1
281
     1
  3
TC_OPTIONAL_DATA
360
246
  0
DICTIONARY
  5
248
330
24A
100
AcDbDictionary
280
     1
281
     1
  3
TC_OPTIONAL_DATA
360
249
  0
DICTIONARY
  5
24B
330
24D
100
AcDbDictionary
280
     1
281
     1
  3
TC_OPTIONAL_DATA
360
24C
  0
DICTIONARY
  5
24E
330
250
100
AcDbDictionary
280
     1
281
     1
  3
TC_OPTIONAL_DATA
360
24F
  0
DICTIONARY
  5
251
330
253
100
AcDbDictionary
280
     1
281
     1
  3
TC_OPTIONAL_DATA
360
252
  0
DICTIONARY
  5
254
330
256
100
AcDbDictionary
280
     1
281
     1
  3
TC_OPTIONAL_DATA
360
255
  0
DICTIONARY
  5
257
330
259
100
AcDbDictionary
280
     1
281
     1
  3
TC_OPTIONAL_DATA
360
258
  0
DICTIONARY
  5
25A
330
25C
100
AcDbDictionary
280
     1
281
     1
  3
TC_OPTIONAL_DATA
360
25B
  0
DICTIONARY
  5
25D
330
25F
100
AcDbDictionary
280
     1
281
     1
  3
TC_OPTIONAL_DATA
360
25E
  0
DICTIONARY
  5
260
330
262
100
AcDbDictionary
280
     1
281
     1
  3
TC_OPTIONAL_DATA
360
261
  0
DICTIONARY
  5
263
330
265
100
AcDbDictionary
280
     1
281
     1
  3
TC_OPTIONAL_DATA
360
264
  0
DICTIONARY
  5
266
330
268
100
AcDbDictionary
280
     1
281
     1
  3
TC_OPTIONAL_DATA
360
267
  0
DICTIONARY
  5
269
330
26B
100
AcDbDictionary
280
     1
281
     1
  3
TC_OPTIONAL_DATA
360
26A
  0
DICTIONARY
  5
26C
330
26E
100
AcDbDictionary
280
     1
281
     1
  3
TC_OPTIONAL_DATA
360
26D
  0
DICTIONARY
  5
26F
330
271
100
AcDbDictionary
280
     1
281
     1
  3
TC_OPTIONAL_DATA
360
270
  0
DICTIONARY
  5
272
330
274
100
AcDbDictionary
280
     1
281
     1
  3
TC_OPTIONAL_DATA
360
273
  0
DICTIONARY
  5
275
330
277
100
AcDbDictionary
280
     1
281
     1
  3
TC_OPTIONAL_DATA
360
276
  0
DICTIONARY
  5
278
330
27A
100
AcDbDictionary
280
     1
281
     1
  3
TC_OPTIONAL_DATA
360
279
  0
DICTIONARY
  5
27B
330
27D
100
AcDbDictionary
280
     1
281
     1
  3
TC_OPTIONAL_DATA
360
27C
  0
DICTIONARY
  5
27E
330
280
100
AcDbDictionary
280
     1
281
     1
  3
TC_OPTIONAL_DATA
360
27F
  0
DICTIONARY
  5
281
330
283
100
AcDbDictionary
280
     1
281
     1
  3
TC_OPTIONAL_DATA
360
282
  0
DICTIONARY
  5
284
330
286
100
AcDbDictionary
280
     1
281
     1
  3
TC_OPTIONAL_DATA
360
285
  0
DICTIONARY
  5
287
330
289
100
AcDbDictionary
280
     1
281
     1
  3
TC_OPTIONAL_DATA
360
288
  0
DICTIONARY
  5
28A
330
28C
100
AcDbDictionary
280
     1
281
     1
  3
TC_OPTIONAL_DATA
360
28B
  0
DICTIONARY
  5
28D
330
28F
100
AcDbDictionary
280
     1
281
     1
  3
TC_OPTIONAL_DATA
360
28E
  0
DICTIONARY
  5
290
330
292
100
AcDbDictionary
280
     1
281
     1
  3
TC_OPTIONAL_DATA
360
291
  0
DICTIONARY
  5
293
330
295
100
AcDbDictionary
280
     1
281
     1
  3
TC_OPTIONAL_DATA
360
294
  0
DICTIONARY
  5
296
330
298
100
AcDbDictionary
280
     1
281
     1
  3
TC_OPTIONAL_DATA
360
297
  0
DICTIONARY
  5
299
330
29B
100
AcDbDictionary
280
     1
281
     1
  3
TC_OPTIONAL_DATA
360
29A
  0
DICTIONARY
  5
29C
330
29E
100
AcDbDictionary
280
     1
281
     1
  3
TC_OPTIONAL_DATA
360
29D
  0
DICTIONARY
  5
29F
330
2A1
100
AcDbDictionary
280
     1
281
     1
  3
TC_OPTIONAL_DATA
360
2A0
  0
DICTIONARY
  5
2A2
330
2A4
100
AcDbDictionary
280
     1
281
     1
  3
TC_OPTIONAL_DATA
360
2A3
  0
DICTIONARY
  5
2AD
330
2AF
100
AcDbDictionary
280
     1
281
     1
  3
TC_OPTIONAL_DATA
360
2AE
  0
DICTIONARY
  5
2B0
330
2B2
100
AcDbDictionary
280
     1
281
     1
  3
TC_OPTIONAL_DATA
360
2B1
  0
DICTIONARY
  5
2B3
330
2B5
100
AcDbDictionary
280
     1
281
     1
  3
TC_OPTIONAL_DATA
360
2B4
  0
DICTIONARY
  5
2B6
330
2B8
100
AcDbDictionary
280
     1
281
     1
  3
TC_OPTIONAL_DATA
360
2B7
  0
DICTIONARY
  5
2B9
330
2BB
100
AcDbDictionary
280
     1
281
     1
  3
TC_OPTIONAL_DATA
360
2BA
  0
DICTIONARY
  5
2BC
330
2BE
100
AcDbDictionary
280
     1
281
     1
  3
TC_OPTIONAL_DATA
360
2BD
  0
DICTIONARY
  5
2BF
330
2C1
100
AcDbDictionary
280
     1
281
     1
  3
TC_OPTIONAL_DATA
360
2C0
  0
DICTIONARY
  5
2C2
330
2C4
100
AcDbDictionary
280
     1
281
     1
  3
TC_OPTIONAL_DATA
360
2C3
  0
DICTIONARY
  5
2C5
330
2C7
100
AcDbDictionary
280
     1
281
     1
  3
TC_OPTIONAL_DATA
360
2C6
  0
DICTIONARY
  5
2C8
330
2CA
100
AcDbDictionary
280
     1
281
     1
  3
TC_OPTIONAL_DATA
360
2C9
  0
DICTIONARY
  5
2CB
330
2CD
100
AcDbDictionary
280
     1
281
     1
  3
TC_OPTIONAL_DATA
360
2CC
  0
DICTIONARY
  5
2CE
330
2D0
100
AcDbDictionary
280
     1
281
     1
  3
TC_OPTIONAL_DATA
360
2CF
  0
DICTIONARY
  5
2D1
330
2D3
100
AcDbDictionary
280
     1
281
     1
  3
TC_OPTIONAL_DATA
360
2D2
  0
DICTIONARY
  5
2D4
330
2D6
100
AcDbDictionary
280
     1
281
     1
  3
TC_OPTIONAL_DATA
360
2D5
  0
DICTIONARY
  5
2D7
330
2D9
100
AcDbDictionary
280
     1
281
     1
  3
TC_OPTIONAL_DATA
360
2D8
  0
DICTIONARY
  5
2DA
330
2DC
100
AcDbDictionary
280
     1
281
     1
  3
TC_OPTIONAL_DATA
360
2DB
  0
DICTIONARY
  5
2DF
330
2E1
100
AcDbDictionary
280
     1
281
     1
  3
TC_OPTIONAL_DATA
360
2E0
  0
DICTIONARY
  5
2E2
330
2E4
100
AcDbDictionary
280
     1
281
     1
  3
TC_OPTIONAL_DATA
360
2E3
  0
DICTIONARY
  5
2E5
330
2E7
100
AcDbDictionary
280
     1
281
     1
  3
TC_OPTIONAL_DATA
360
2E6
  0
DICTIONARY
  5
2E8
330
2EA
100
AcDbDictionary
280
     1
281
     1
  3
TC_OPTIONAL_DATA
360
2E9
  0
DICTIONARY
  5
2EB
330
2ED
100
AcDbDictionary
280
     1
281
     1
  3
TC_OPTIONAL_DATA
360
2EC
  0
DICTIONARY
  5
2EE
330
2F0
100
AcDbDictionary
280
     1
281
     1
  3
TC_OPTIONAL_DATA
360
2EF
  0
DICTIONARY
  5
2F1
330
2F3
100
AcDbDictionary
280
     1
281
     1
  3
TC_OPTIONAL_DATA
360
2F2
  0
DICTIONARY
  5
2F4
330
2F6
100
AcDbDictionary
280
     1
281
     1
  3
TC_OPTIONAL_DATA
360
2F5
  0
DICTIONARY
  5
2F7
330
2F9
100
AcDbDictionary
280
     1
281
     1
  3
TC_OPTIONAL_DATA
360
2F8
  0
DICTIONARY
  5
2FA
330
2FC
100
AcDbDictionary
280
     1
281
     1
  3
TC_OPTIONAL_DATA
360
2FB
  0
DICTIONARY
  5
2FD
330
2FF
100
AcDbDictionary
280
     1
281
     1
  3
TC_OPTIONAL_DATA
360
2FE
  0
DICTIONARY
  5
300
330
302
100
AcDbDictionary
280
     1
281
     1
  3
TC_OPTIONAL_DATA
360
301
  0
DICTIONARY
  5
303
330
305
100
AcDbDictionary
280
     1
281
     1
  3
TC_OPTIONAL_DATA
360
304
  0
DICTIONARY
  5
306
330
308
100
AcDbDictionary
280
     1
281
     1
  3
TC_OPTIONAL_DATA
360
307
  0
DICTIONARY
  5
309
330
30B
100
AcDbDictionary
280
     1
281
     1
  3
TC_OPTIONAL_DATA
360
30A
  0
DICTIONARY
  5
30C
330
30E
100
AcDbDictionary
280
     1
281
     1
  3
TC_OPTIONAL_DATA
360
30D
  0
DICTIONARY
  5
310
330
312
100
AcDbDictionary
280
     1
281
     1
  3
TC_OPTIONAL_DATA
360
311
  0
DICTIONARY
  5
313
330
315
100
AcDbDictionary
280
     1
281
     1
  3
TC_OPTIONAL_DATA
360
314
  0
DICTIONARY
  5
316
330
318
100
AcDbDictionary
280
     1
281
     1
  3
TC_OPTIONAL_DATA
360
317
  0
DICTIONARY
  5
319
330
31B
100
AcDbDictionary
280
     1
281
     1
  3
TC_OPTIONAL_DATA
360
31A
  0
DICTIONARY
  5
31C
330
31E
100
AcDbDictionary
280
     1
281
     1
  3
TC_OPTIONAL_DATA
360
31D
  0
DICTIONARY
  5
321
330
323
100
AcDbDictionary
280
     1
281
     1
  3
TC_OPTIONAL_DATA
360
322
  0
DICTIONARY
  5
324
330
326
100
AcDbDictionary
280
     1
281
     1
  3
TC_OPTIONAL_DATA
360
325
  0
DICTIONARY
  5
327
330
329
100
AcDbDictionary
280
     1
281
     1
  3
TC_OPTIONAL_DATA
360
328
  0
DICTIONARY
  5
32A
330
32C
100
AcDbDictionary
280
     1
281
     1
  3
TC_OPTIONAL_DATA
360
32B
  0
DICTIONARY
  5
32D
330
32F
100
AcDbDictionary
280
     1
281
     1
  3
TC_OPTIONAL_DATA
360
32E
  0
DICTIONARY
  5
330
330
332
100
AcDbDictionary
280
     1
281
     1
  3
TC_OPTIONAL_DATA
360
331
  0
DICTIONARY
  5
333
330
335
100
AcDbDictionary
280
     1
281
     1
  3
TC_OPTIONAL_DATA
360
334
  0
DICTIONARY
  5
336
330
338
100
AcDbDictionary
280
     1
281
     1
  3
TC_OPTIONAL_DATA
360
337
  0
DICTIONARY
  5
339
330
33B
100
AcDbDictionary
280
     1
281
     1
  3
TC_OPTIONAL_DATA
360
33A
  0
DICTIONARY
  5
33C
330
33E
100
AcDbDictionary
280
     1
281
     1
  3
TC_OPTIONAL_DATA
360
33D
  0
DICTIONARY
  5
33F
330
341
100
AcDbDictionary
280
     1
281
     1
  3
TC_OPTIONAL_DATA
360
340
  0
DICTIONARY
  5
342
330
344
100
AcDbDictionary
280
     1
281
     1
  3
TC_OPTIONAL_DATA
360
343
  0
DICTIONARY
  5
345
330
347
100
AcDbDictionary
280
     1
281
     1
  3
TC_OPTIONAL_DATA
360
346
  0
DICTIONARY
  5
348
330
34A
100
AcDbDictionary
280
     1
281
     1
  3
TC_OPTIONAL_DATA
360
349
  0
DICTIONARY
  5
34B
330
34D
100
AcDbDictionary
280
     1
281
     1
  3
TC_OPTIONAL_DATA
360
34C
  0
DICTIONARY
  5
34E
330
350
100
AcDbDictionary
280
     1
281
     1
  3
TC_OPTIONAL_DATA
360
34F
  0
DICTIONARY
  5
351
330
353
100
AcDbDictionary
280
     1
281
     1
  3
TC_OPTIONAL_DATA
360
352
  0
DICTIONARY
  5
354
330
356
100
AcDbDictionary
280
     1
281
     1
  3
TC_OPTIONAL_DATA
360
355
  0
DICTIONARY
  5
357
330
359
100
AcDbDictionary
280
     1
281
     1
  3
TC_OPTIONAL_DATA
360
358
  0
DICTIONARY
  5
35A
330
35C
100
AcDbDictionary
280
     1
281
     1
  3
TC_OPTIONAL_DATA
360
35B
  0
DICTIONARY
  5
35D
330
35F
100
AcDbDictionary
280
     1
281
     1
  3
TC_OPTIONAL_DATA
360
35E
  0
DICTIONARY
  5
360
330
362
100
AcDbDictionary
280
     1
281
     1
  3
TC_OPTIONAL_DATA
360
361
  0
DICTIONARY
  5
364
330
366
100
AcDbDictionary
280
     1
281
     1
  3
TC_OPTIONAL_DATA
360
365
  0
DICTIONARY
  5
367
330
369
100
AcDbDictionary
280
     1
281
     1
  3
TC_OPTIONAL_DATA
360
368
  0
DICTIONARY
  5
36A
330
36C
100
AcDbDictionary
280
     1
281
     1
  3
TC_OPTIONAL_DATA
360
36B
  0
DICTIONARY
  5
36D
330
36F
100
AcDbDictionary
280
     1
281
     1
  3
TC_OPTIONAL_DATA
360
36E
  0
DICTIONARY
  5
370
330
372
100
AcDbDictionary
280
     1
281
     1
  3
TC_OPTIONAL_DATA
360
371
  0
DICTIONARY
  5
373
330
375
100
AcDbDictionary
280
     1
281
     1
  3
TC_OPTIONAL_DATA
360
374
  0
DICTIONARY
  5
376
330
378
100
AcDbDictionary
280
     1
281
     1
  3
TC_OPTIONAL_DATA
360
377
  0
DICTIONARY
  5
379
330
37B
100
AcDbDictionary
280
     1
281
     1
  3
TC_OPTIONAL_DATA
360
37A
  0
DICTIONARY
  5
37E
330
380
100
AcDbDictionary
280
     1
281
     1
  3
TC_OPTIONAL_DATA
360
37F
  0
DICTIONARY
  5
381
330
383
100
AcDbDictionary
280
     1
281
     1
  3
TC_OPTIONAL_DATA
360
382
  0
DICTIONARY
  5
384
330
386
100
AcDbDictionary
280
     1
281
     1
  3
TC_OPTIONAL_DATA
360
385
  0
DICTIONARY
  5
387
330
389
100
AcDbDictionary
280
     1
281
     1
  3
TC_OPTIONAL_DATA
360
388
  0
DICTIONARY
  5
38A
330
38C
100
AcDbDictionary
280
     1
281
     1
  3
TC_OPTIONAL_DATA
360
38B
  0
DICTIONARY
  5
38D
330
38F
100
AcDbDictionary
280
     1
281
     1
  3
TC_OPTIONAL_DATA
360
38E
  0
DICTIONARY
  5
390
330
392
100
AcDbDictionary
280
     1
281
     1
  3
TC_OPTIONAL_DATA
360
391
  0
DICTIONARY
  5
393
330
395
100
AcDbDictionary
280
     1
281
     1
  3
TC_OPTIONAL_DATA
360
394
  0
DICTIONARY
  5
396
330
398
100
AcDbDictionary
280
     1
281
     1
  3
TC_OPTIONAL_DATA
360
397
  0
DICTIONARY
  5
399
330
39B
100
AcDbDictionary
280
     1
281
     1
  3
TC_OPTIONAL_DATA
360
39A
  0
DICTIONARY
  5
39C
330
39E
100
AcDbDictionary
280
     1
281
     1
  3
TC_OPTIONAL_DATA
360
39D
  0
DICTIONARY
  5
39F
330
3A1
100
AcDbDictionary
280
     1
281
     1
  3
TC_OPTIONAL_DATA
360
3A0
  0
DICTIONARY
  5
3A2
330
3A4
100
AcDbDictionary
280
     1
281
     1
  3
TC_OPTIONAL_DATA
360
3A3
  0
DICTIONARY
  5
3A5
330
3A7
100
AcDbDictionary
280
     1
281
     1
  3
TC_OPTIONAL_DATA
360
3A6
  0
DICTIONARY
  5
3A8
330
3AA
100
AcDbDictionary
280
     1
281
     1
  3
TC_OPTIONAL_DATA
360
3A9
  0
DICTIONARY
  5
3AB
330
3AD
100
AcDbDictionary
280
     1
281
     1
  3
TC_OPTIONAL_DATA
360
3AC
  0
DICTIONARY
  5
3AE
330
3B0
100
AcDbDictionary
280
     1
281
     1
  3
TC_OPTIONAL_DATA
360
3AF
  0
DICTIONARY
  5
3B1
330
3B3
100
AcDbDictionary
280
     1
281
     1
  3
TC_OPTIONAL_DATA
360
3B2
  0
DICTIONARY
  5
3B8
330
3BA
100
AcDbDictionary
280
     1
281
     1
  3
TC_OPTIONAL_DATA
360
3B9
  0
DICTIONARY
  5
3BD
330
3BF
100
AcDbDictionary
280
     1
281
     1
  3
TC_OPTIONAL_DATA
360
3BE
  0
DICTIONARY
  5
3C0
330
3C2
100
AcDbDictionary
280
     1
281
     1
  3
TC_OPTIONAL_DATA
360
3C1
  0
DICTIONARY
  5
3C3
330
3C5
100
AcDbDictionary
280
     1
281
     1
  3
TC_OPTIONAL_DATA
360
3C4
  0
DICTIONARY
  5
3C6
330
3C8
100
AcDbDictionary
280
     1
281
     1
  3
TC_OPTIONAL_DATA
360
3C7
  0
DICTIONARY
  5
3C9
330
3CB
100
AcDbDictionary
280
     1
281
     1
  3
TC_OPTIONAL_DATA
360
3CA
  0
DICTIONARY
  5
3CC
330
3CE
100
AcDbDictionary
280
     1
281
     1
  3
TC_OPTIONAL_DATA
360
3CD
  0
DICTIONARY
  5
3CF
330
3D1
100
AcDbDictionary
280
     1
281
     1
  3
TC_OPTIONAL_DATA
360
3D0
  0
DICTIONARY
  5
3D2
330
3D4
100
AcDbDictionary
280
     1
281
     1
  3
TC_OPTIONAL_DATA
360
3D3
  0
DICTIONARY
  5
3D5
330
3D7
100
AcDbDictionary
280
     1
281
     1
  3
TC_OPTIONAL_DATA
360
3D6
  0
DICTIONARY
  5
3DA
330
3DC
100
AcDbDictionary
280
     1
281
     1
  3
TC_OPTIONAL_DATA
360
3DB
  0
DICTIONARY
  5
3DF
330
3E1
100
AcDbDictionary
280
     1
281
     1
  3
TC_OPTIONAL_DATA
360
3E0
  0
DICTIONARY
  5
3E2
330
3E4
100
AcDbDictionary
280
     1
281
     1
  3
TC_OPTIONAL_DATA
360
3E3
  0
DICTIONARY
  5
3E7
330
3E9
100
AcDbDictionary
280
     1
281
     1
  3
TC_OPTIONAL_DATA
360
3E8
  0
DICTIONARY
  5
3EA
330
3EC
100
AcDbDictionary
280
     1
281
     1
  3
TC_OPTIONAL_DATA
360
3EB
  0
DICTIONARY
  5
3ED
330
3EF
100
AcDbDictionary
280
     1
281
     1
  3
TC_OPTIONAL_DATA
360
3EE
  0
DICTIONARY
  5
3F0
330
3F2
100
AcDbDictionary
280
     1
281
     1
  3
TC_OPTIONAL_DATA
360
3F1
  0
DICTIONARY
  5
3F3
330
3F5
100
AcDbDictionary
280
     1
281
     1
  3
TC_OPTIONAL_DATA
360
3F4
  0
DICTIONARY
  5
3F6
330
3F8
100
AcDbDictionary
280
     1
281
     1
  3
TC_OPTIONAL_DATA
360
3F7
  0
DICTIONARY
  5
3F9
330
3FB
100
AcDbDictionary
280
     1
281
     1
  3
TC_OPTIONAL_DATA
360
3FA
  0
DICTIONARY
  5
3FC
330
3FE
100
AcDbDictionary
280
     1
281
     1
  3
TC_OPTIONAL_DATA
360
3FD
  0
DICTIONARY
  5
3FF
330
401
100
AcDbDictionary
280
     1
281
     1
  3
TC_OPTIONAL_DATA
360
400
  0
DICTIONARY
  5
402
330
404
100
AcDbDictionary
280
     1
281
     1
  3
TC_OPTIONAL_DATA
360
403
  0
DICTIONARY
  5
405
330
407
100
AcDbDictionary
280
     1
281
     1
  3
TC_OPTIONAL_DATA
360
406
  0
DICTIONARY
  5
408
330
40A
100
AcDbDictionary
280
     1
281
     1
  3
TC_OPTIONAL_DATA
360
409
  0
DICTIONARY
  5
40B
330
40D
100
AcDbDictionary
280
     1
281
     1
  3
TC_OPTIONAL_DATA
360
40C
  0
DICTIONARY
  5
40E
330
410
100
AcDbDictionary
280
     1
281
     1
  3
TC_OPTIONAL_DATA
360
40F
  0
DICTIONARY
  5
411
330
413
100
AcDbDictionary
280
     1
281
     1
  3
TC_OPTIONAL_DATA
360
412
  0
DICTIONARY
  5
414
330
416
100
AcDbDictionary
280
     1
281
     1
  3
TC_OPTIONAL_DATA
360
415
  0
DICTIONARY
  5
417
330
419
100
AcDbDictionary
280
     1
281
     1
  3
TC_OPTIONAL_DATA
360
418
  0
DICTIONARY
  5
41A
330
41C
100
AcDbDictionary
280
     1
281
     1
  3
TC_OPTIONAL_DATA
360
41B
  0
DICTIONARY
  5
41D
330
41F
100
AcDbDictionary
280
     1
281
     1
  3
TC_OPTIONAL_DATA
360
41E
  0
DICTIONARY
  5
420
330
422
100
AcDbDictionary
280
     1
281
     1
  3
TC_OPTIONAL_DATA
360
421
  0
DICTIONARY
  5
423
330
425
100
AcDbDictionary
280
     1
281
     1
  3
TC_OPTIONAL_DATA
360
424
  0
DICTIONARY
  5
426
330
428
100
AcDbDictionary
280
     1
281
     1
  3
TC_OPTIONAL_DATA
360
427
  0
DICTIONARY
  5
429
330
42B
100
AcDbDictionary
280
     1
281
     1
  3
TC_OPTIONAL_DATA
360
42A
  0
DICTIONARY
  5
42C
330
42E
100
AcDbDictionary
280
     1
281
     1
  3
TC_OPTIONAL_DATA
360
42D
  0
DICTIONARY
  5
42F
330
431
100
AcDbDictionary
280
     1
281
     1
  3
TC_OPTIONAL_DATA
360
430
  0
DICTIONARY
  5
D
102
{ACAD_REACTORS
330
C
102
}
330
C
100
AcDbDictionary
281
     1
  3
Group_0
350
43F
  0
DICTIONARY
  5
1A
102
{ACAD_REACTORS
330
C
102
}
330
C
100
AcDbDictionary
281
     1
  3
Layout1
350
1E
  3
Model
350
22
  0
DICTIONARY
  5
440
102
{ACAD_REACTORS
330
C
102
}
330
C
100
AcDbDictionary
281
     1
  0
DICTIONARY
  5
17
102
{ACAD_REACTORS
330
C
102
}
330
C
100
AcDbDictionary
281
     1
  3
Standard
350
18
  0
DICTIONARY
  5
19
102
{ACAD_REACTORS
330
C
102
}
330
C
100
AcDbDictionary
281
     1
  0
ACDBDICTIONARYWDFLT
  5
E
102
{ACAD_REACTORS
330
C
102
}
330
C
100
AcDbDictionary
281
     1
  3
Normal
350
F
100
AcDbDictionaryWithDefault
340
F
  0
DICTIONARY
  5
3B
102
{ACAD_REACTORS
330
C
102
}
330
C
100
AcDbDictionary
281
     1
  3
A0
350
3C
  3
A1
350
3D
  3
A2
350
3E
  3
A3
350
3F
  3
A4
350
40
  3
A5
350
41
  3
A6
350
42
  3
A7
350
43
  3
A8
350
44
  3
A9
350
45
  3
B0
350
46
  3
B1
350
47
  3
B2
350
48
  3
B3
350
49
  3
B4
350
4A
  3
B5
350
4B
  3
B6
350
4C
  3
B7
350
4D
  3
B8
350
4E
  3
B9
350
4F
  3
C0
350
50
  3
C1
350
51
  3
C2
350
52
  3
C3
350
53
  3
C4
350
54
  3
C5
350
55
  3
C6
350
56
  3
C7
350
57
  3
C8
350
58
  3
C9
350
59
  3
D0
350
5A
  3
D1
350
5B
  3
D2
350
5C
  0
DICTIONARY
  5
86
102
{ACAD_REACTORS
330
C
102
}
330
C
100
AcDbDictionary
281
     1
  3
標準
350
87
  0
DICTIONARY
  5
2A
102
{ACAD_REACTORS
330
C
102
}
330
C
100
AcDbDictionary
281
     1
  3
2dWireframe
350
2F
  3
3D Hidden
350
31
  3
3dWireframe
350
30
  3
Basic
350
32
  3
Brighten
350
36
  3
ColorChange
350
3A
  3
Conceptual
350
34
  3
Dim
350
35
  3
Facepattern
350
39
  3
Flat
350
2B
  3
FlatWithEdges
350
2C
  3
Gouraud
350
2D
  3
GouraudWithEdges
350
2E
  3
Linepattern
350
38
  3
Realistic
350
33
  3
Thicken
350
37
  0
TCOPTIONALDATA
  5
8D
102
{ACAD_REACTORS
330
8C
102
}
330
8C
100
TcOptionalData
 70
     1
 70
    32
 40
-3.0
  0
TCOPTIONALDATA
  5
90
102
{ACAD_REACTORS
330
8F
102
}
330
8F
100
TcOptionalData
 70
     1
 70
    32
 40
-3.0
  0
TCOPTIONALDATA
  5
93
102
{ACAD_REACTORS
330
92
102
}
330
92
100
TcOptionalData
 70
     1
 70
    32
 40
-3.0
  0
TCOPTIONALDATA
  5
96
102
{ACAD_REACTORS
330
95
102
}
330
95
100
TcOptionalData
 70
     1
 70
    32
 40
-3.0
  0
TCOPTIONALDATA
  5
99
102
{ACAD_REACTORS
330
98
102
}
330
98
100
TcOptionalData
 70
     1
 70
    32
 40
-3.0
  0
TCOPTIONALDATA
  5
9C
102
{ACAD_REACTORS
330
9B
102
}
330
9B
100
TcOptionalData
 70
     1
 70
    32
 40
-3.0
  0
TCOPTIONALDATA
  5
9F
102
{ACAD_REACTORS
330
9E
102
}
330
9E
100
TcOptionalData
 70
     1
 70
    32
 40
-3.0
  0
TCOPTIONALDATA
  5
A2
102
{ACAD_REACTORS
330
A1
102
}
330
A1
100
TcOptionalData
 70
     1
 70
    32
 40
-3.0
  0
TCOPTIONALDATA
  5
A5
102
{ACAD_REACTORS
330
A4
102
}
330
A4
100
TcOptionalData
 70
     1
 70
    32
 40
-3.0
  0
TCOPTIONALDATA
  5
A8
102
{ACAD_REACTORS
330
A7
102
}
330
A7
100
TcOptionalData
 70
     1
 70
    32
 40
-3.0
  0
TCOPTIONALDATA
  5
AB
102
{ACAD_REACTORS
330
AA
102
}
330
AA
100
TcOptionalData
 70
     1
 70
    32
 40
-3.0
  0
TCOPTIONALDATA
  5
AE
102
{ACAD_REACTORS
330
AD
102
}
330
AD
100
TcOptionalData
 70
     1
 70
    32
 40
-3.0
  0
TCOPTIONALDATA
  5
B1
102
{ACAD_REACTORS
330
B0
102
}
330
B0
100
TcOptionalData
 70
     1
 70
    32
 40
-3.0
  0
TCOPTIONALDATA
  5
B4
102
{ACAD_REACTORS
330
B3
102
}
330
B3
100
TcOptionalData
 70
     1
 70
    32
 40
-3.0
  0
TCOPTIONALDATA
  5
B7
102
{ACAD_REACTORS
330
B6
102
}
330
B6
100
TcOptionalData
 70
     1
 70
    32
 40
-3.0
  0
TCOPTIONALDATA
  5
BA
102
{ACAD_REACTORS
330
B9
102
}
330
B9
100
TcOptionalData
 70
     1
 70
    32
 40
-3.0
  0
TCOPTIONALDATA
  5
BD
102
{ACAD_REACTORS
330
BC
102
}
330
BC
100
TcOptionalData
 70
     1
 70
    32
 40
-3.0
  0
TCOPTIONALDATA
  5
C0
102
{ACAD_REACTORS
330
BF
102
}
330
BF
100
TcOptionalData
 70
     1
 70
    32
 40
-3.0
  0
TCOPTIONALDATA
  5
C3
102
{ACAD_REACTORS
330
C2
102
}
330
C2
100
TcOptionalData
 70
     1
 70
    32
 40
-3.0
  0
TCOPTIONALDATA
  5
C6
102
{ACAD_REACTORS
330
C5
102
}
330
C5
100
TcOptionalData
 70
     1
 70
    32
 40
-3.0
  0
TCOPTIONALDATA
  5
C9
102
{ACAD_REACTORS
330
C8
102
}
330
C8
100
TcOptionalData
 70
     1
 70
    32
 40
-3.0
  0
TCOPTIONALDATA
  5
CC
102
{ACAD_REACTORS
330
CB
102
}
330
CB
100
TcOptionalData
 70
     1
 70
    32
 40
-3.0
  0
TCOPTIONALDATA
  5
CF
102
{ACAD_REACTORS
330
CE
102
}
330
CE
100
TcOptionalData
 70
     1
 70
    32
 40
-3.0
  0
TCOPTIONALDATA
  5
D2
102
{ACAD_REACTORS
330
D1
102
}
330
D1
100
TcOptionalData
 70
     1
 70
    32
 40
-3.0
  0
TCOPTIONALDATA
  5
D5
102
{ACAD_REACTORS
330
D4
102
}
330
D4
100
TcOptionalData
 70
     1
 70
    32
 40
-3.0
  0
TCOPTIONALDATA
  5
D8
102
{ACAD_REACTORS
330
D7
102
}
330
D7
100
TcOptionalData
 70
     1
 70
    32
 40
-3.0
  0
TCOPTIONALDATA
  5
DB
102
{ACAD_REACTORS
330
DA
102
}
330
DA
100
TcOptionalData
 70
     1
 70
    32
 40
-3.0
  0
TCOPTIONALDATA
  5
DE
102
{ACAD_REACTORS
330
DD
102
}
330
DD
100
TcOptionalData
 70
     1
 70
    32
 40
-3.0
  0
TCOPTIONALDATA
  5
E1
102
{ACAD_REACTORS
330
E0
102
}
330
E0
100
TcOptionalData
 70
     1
 70
    32
 40
-3.0
  0
TCOPTIONALDATA
  5
E4
102
{ACAD_REACTORS
330
E3
102
}
330
E3
100
TcOptionalData
 70
     1
 70
    32
 40
-3.0
  0
TCOPTIONALDATA
  5
E7
102
{ACAD_REACTORS
330
E6
102
}
330
E6
100
TcOptionalData
 70
     1
 70
    32
 40
-3.0
  0
TCOPTIONALDATA
  5
EA
102
{ACAD_REACTORS
330
E9
102
}
330
E9
100
TcOptionalData
 70
     1
 70
    32
 40
-3.0
  0
TCOPTIONALDATA
  5
ED
102
{ACAD_REACTORS
330
EC
102
}
330
EC
100
TcOptionalData
 70
     1
 70
    32
 40
-3.0
  0
TCOPTIONALDATA
  5
F0
102
{ACAD_REACTORS
330
EF
102
}
330
EF
100
TcOptionalData
 70
     1
 70
    32
 40
-3.0
  0
TCOPTIONALDATA
  5
F3
102
{ACAD_REACTORS
330
F2
102
}
330
F2
100
TcOptionalData
 70
     1
 70
    32
 40
-3.0
  0
TCOPTIONALDATA
  5
F6
102
{ACAD_REACTORS
330
F5
102
}
330
F5
100
TcOptionalData
 70
     1
 70
    32
 40
-3.0
  0
TCOPTIONALDATA
  5
F9
102
{ACAD_REACTORS
330
F8
102
}
330
F8
100
TcOptionalData
 70
     1
 70
    32
 40
-3.0
  0
TCOPTIONALDATA
  5
FC
102
{ACAD_REACTORS
330
FB
102
}
330
FB
100
TcOptionalData
 70
     1
 70
    32
 40
-3.0
  0
TCOPTIONALDATA
  5
FF
102
{ACAD_REACTORS
330
FE
102
}
330
FE
100
TcOptionalData
 70
     1
 70
    32
 40
-3.0
  0
TCOPTIONALDATA
  5
102
102
{ACAD_REACTORS
330
101
102
}
330
101
100
TcOptionalData
 70
     1
 70
    32
 40
-3.0
  0
TCOPTIONALDATA
  5
105
102
{ACAD_REACTORS
330
104
102
}
330
104
100
TcOptionalData
 70
     1
 70
    32
 40
-3.0
  0
TCOPTIONALDATA
  5
108
102
{ACAD_REACTORS
330
107
102
}
330
107
100
TcOptionalData
 70
     1
 70
    32
 40
-3.0
  0
TCOPTIONALDATA
  5
10B
102
{ACAD_REACTORS
330
10A
102
}
330
10A
100
TcOptionalData
 70
     1
 70
    32
 40
-3.0
  0
TCOPTIONALDATA
  5
10E
102
{ACAD_REACTORS
330
10D
102
}
330
10D
100
TcOptionalData
 70
     1
 70
    32
 40
-3.0
  0
TCOPTIONALDATA
  5
111
102
{ACAD_REACTORS
330
110
102
}
330
110
100
TcOptionalData
 70
     1
 70
    32
 40
-3.0
  0
TCOPTIONALDATA
  5
114
102
{ACAD_REACTORS
330
113
102
}
330
113
100
TcOptionalData
 70
     1
 70
    32
 40
-3.0
  0
TCOPTIONALDATA
  5
117
102
{ACAD_REACTORS
330
116
102
}
330
116
100
TcOptionalData
 70
     1
 70
    32
 40
-3.0
  0
TCOPTIONALDATA
  5
11A
102
{ACAD_REACTORS
330
119
102
}
330
119
100
TcOptionalData
 70
     1
 70
    32
 40
-3.0
  0
TCOPTIONALDATA
  5
11D
102
{ACAD_REACTORS
330
11C
102
}
330
11C
100
TcOptionalData
 70
     1
 70
    32
 40
-3.0
  0
TCOPTIONALDATA
  5
120
102
{ACAD_REACTORS
330
11F
102
}
330
11F
100
TcOptionalData
 70
     1
 70
    32
 40
-3.0
  0
TCOPTIONALDATA
  5
123
102
{ACAD_REACTORS
330
122
102
}
330
122
100
TcOptionalData
 70
     1
 70
    32
 40
-3.0
  0
TCOPTIONALDATA
  5
126
102
{ACAD_REACTORS
330
125
102
}
330
125
100
TcOptionalData
 70
     1
 70
    32
 40
-3.0
  0
TCOPTIONALDATA
  5
129
102
{ACAD_REACTORS
330
128
102
}
330
128
100
TcOptionalData
 70
     1
 70
    32
 40
-3.0
  0
TCOPTIONALDATA
  5
12C
102
{ACAD_REACTORS
330
12B
102
}
330
12B
100
TcOptionalData
 70
     1
 70
    32
 40
-3.0
  0
TCOPTIONALDATA
  5
12F
102
{ACAD_REACTORS
330
12E
102
}
330
12E
100
TcOptionalData
 70
     1
 70
    32
 40
-3.0
  0
TCOPTIONALDATA
  5
132
102
{ACAD_REACTORS
330
131
102
}
330
131
100
TcOptionalData
 70
     1
 70
    32
 40
-3.0
  0
TCOPTIONALDATA
  5
135
102
{ACAD_REACTORS
330
134
102
}
330
134
100
TcOptionalData
 70
     1
 70
    32
 40
-3.0
  0
TCOPTIONALDATA
  5
138
102
{ACAD_REACTORS
330
137
102
}
330
137
100
TcOptionalData
 70
     1
 70
    32
 40
-3.0
  0
TCOPTIONALDATA
  5
13B
102
{ACAD_REACTORS
330
13A
102
}
330
13A
100
TcOptionalData
 70
     1
 70
    32
 40
-3.0
  0
TCOPTIONALDATA
  5
13E
102
{ACAD_REACTORS
330
13D
102
}
330
13D
100
TcOptionalData
 70
     1
 70
    32
 40
-3.0
  0
TCOPTIONALDATA
  5
141
102
{ACAD_REACTORS
330
140
102
}
330
140
100
TcOptionalData
 70
     1
 70
    32
 40
-3.0
  0
TCOPTIONALDATA
  5
144
102
{ACAD_REACTORS
330
143
102
}
330
143
100
TcOptionalData
 70
     1
 70
    32
 40
-3.0
  0
TCOPTIONALDATA
  5
147
102
{ACAD_REACTORS
330
146
102
}
330
146
100
TcOptionalData
 70
     1
 70
    32
 40
-3.0
  0
TCOPTIONALDATA
  5
14A
102
{ACAD_REACTORS
330
149
102
}
330
149
100
TcOptionalData
 70
     1
 70
    32
 40
-3.0
  0
TCOPTIONALDATA
  5
14D
102
{ACAD_REACTORS
330
14C
102
}
330
14C
100
TcOptionalData
 70
     1
 70
    32
 40
-3.0
  0
TCOPTIONALDATA
  5
150
102
{ACAD_REACTORS
330
14F
102
}
330
14F
100
TcOptionalData
 70
     1
 70
    32
 40
-3.0
  0
TCOPTIONALDATA
  5
153
102
{ACAD_REACTORS
330
152
102
}
330
152
100
TcOptionalData
 70
     1
 70
    32
 40
-3.0
  0
TCOPTIONALDATA
  5
156
102
{ACAD_REACTORS
330
155
102
}
330
155
100
TcOptionalData
 70
     1
 70
    32
 40
-3.0
  0
TCOPTIONALDATA
  5
159
102
{ACAD_REACTORS
330
158
102
}
330
158
100
TcOptionalData
 70
     1
 70
    32
 40
-3.0
  0
TCOPTIONALDATA
  5
15C
102
{ACAD_REACTORS
330
15B
102
}
330
15B
100
TcOptionalData
 70
     1
 70
    32
 40
-3.0
  0
TCOPTIONALDATA
  5
15F
102
{ACAD_REACTORS
330
15E
102
}
330
15E
100
TcOptionalData
 70
     1
 70
    32
 40
-3.0
  0
TCOPTIONALDATA
  5
162
102
{ACAD_REACTORS
330
161
102
}
330
161
100
TcOptionalData
 70
     1
 70
    32
 40
-3.0
  0
TCOPTIONALDATA
  5
165
102
{ACAD_REACTORS
330
164
102
}
330
164
100
TcOptionalData
 70
     1
 70
    32
 40
-3.0
  0
TCOPTIONALDATA
  5
168
102
{ACAD_REACTORS
330
167
102
}
330
167
100
TcOptionalData
 70
     1
 70
    32
 40
-3.0
  0
TCOPTIONALDATA
  5
16B
102
{ACAD_REACTORS
330
16A
102
}
330
16A
100
TcOptionalData
 70
     1
 70
    32
 40
-3.0
  0
TCOPTIONALDATA
  5
16E
102
{ACAD_REACTORS
330
16D
102
}
330
16D
100
TcOptionalData
 70
     1
 70
    32
 40
-3.0
  0
TCOPTIONALDATA
  5
171
102
{ACAD_REACTORS
330
170
102
}
330
170
100
TcOptionalData
 70
     1
 70
    32
 40
-3.0
  0
TCOPTIONALDATA
  5
174
102
{ACAD_REACTORS
330
173
102
}
330
173
100
TcOptionalData
 70
     1
 70
    32
 40
-3.0
  0
TCOPTIONALDATA
  5
177
102
{ACAD_REACTORS
330
176
102
}
330
176
100
TcOptionalData
 70
     1
 70
    32
 40
-3.0
  0
TCOPTIONALDATA
  5
17A
102
{ACAD_REACTORS
330
179
102
}
330
179
100
TcOptionalData
 70
     1
 70
    32
 40
-3.0
  0
TCOPTIONALDATA
  5
17D
102
{ACAD_REACTORS
330
17C
102
}
330
17C
100
TcOptionalData
 70
     1
 70
    32
 40
-3.0
  0
TCOPTIONALDATA
  5
180
102
{ACAD_REACTORS
330
17F
102
}
330
17F
100
TcOptionalData
 70
     1
 70
    32
 40
-3.0
  0
TCOPTIONALDATA
  5
183
102
{ACAD_REACTORS
330
182
102
}
330
182
100
TcOptionalData
 70
     1
 70
    32
 40
-3.0
  0
TCOPTIONALDATA
  5
186
102
{ACAD_REACTORS
330
185
102
}
330
185
100
TcOptionalData
 70
     1
 70
    32
 40
-3.0
  0
TCOPTIONALDATA
  5
189
102
{ACAD_REACTORS
330
188
102
}
330
188
100
TcOptionalData
 70
     1
 70
    32
 40
-3.0
  0
TCOPTIONALDATA
  5
18C
102
{ACAD_REACTORS
330
18B
102
}
330
18B
100
TcOptionalData
 70
     1
 70
    32
 40
-3.0
  0
TCOPTIONALDATA
  5
18F
102
{ACAD_REACTORS
330
18E
102
}
330
18E
100
TcOptionalData
 70
     1
 70
    32
 40
-3.0
  0
TCOPTIONALDATA
  5
192
102
{ACAD_REACTORS
330
191
102
}
330
191
100
TcOptionalData
 70
     1
 70
    32
 40
-3.0
  0
TCOPTIONALDATA
  5
195
102
{ACAD_REACTORS
330
194
102
}
330
194
100
TcOptionalData
 70
     1
 70
    32
 40
-3.0
  0
TCOPTIONALDATA
  5
198
102
{ACAD_REACTORS
330
197
102
}
330
197
100
TcOptionalData
 70
     1
 70
    32
 40
-3.0
  0
TCOPTIONALDATA
  5
19B
102
{ACAD_REACTORS
330
19A
102
}
330
19A
100
TcOptionalData
 70
     1
 70
    32
 40
-3.0
  0
TCOPTIONALDATA
  5
19E
102
{ACAD_REACTORS
330
19D
102
}
330
19D
100
TcOptionalData
 70
     1
 70
    32
 40
-3.0
  0
TCOPTIONALDATA
  5
1A1
102
{ACAD_REACTORS
330
1A0
102
}
330
1A0
100
TcOptionalData
 70
     1
 70
    32
 40
-3.0
  0
TCOPTIONALDATA
  5
1A4
102
{ACAD_REACTORS
330
1A3
102
}
330
1A3
100
TcOptionalData
 70
     1
 70
    32
 40
-3.0
  0
TCOPTIONALDATA
  5
1A7
102
{ACAD_REACTORS
330
1A6
102
}
330
1A6
100
TcOptionalData
 70
     1
 70
    32
 40
-3.0
  0
TCOPTIONALDATA
  5
1AA
102
{ACAD_REACTORS
330
1A9
102
}
330
1A9
100
TcOptionalData
 70
     1
 70
    32
 40
-3.0
  0
TCOPTIONALDATA
  5
1AD
102
{ACAD_REACTORS
330
1AC
102
}
330
1AC
100
TcOptionalData
 70
     1
 70
    32
 40
-3.0
  0
TCOPTIONALDATA
  5
1B0
102
{ACAD_REACTORS
330
1AF
102
}
330
1AF
100
TcOptionalData
 70
     1
 70
    32
 40
-3.0
  0
TCOPTIONALDATA
  5
1B3
102
{ACAD_REACTORS
330
1B2
102
}
330
1B2
100
TcOptionalData
 70
     1
 70
    32
 40
-3.0
  0
TCOPTIONALDATA
  5
1B6
102
{ACAD_REACTORS
330
1B5
102
}
330
1B5
100
TcOptionalData
 70
     1
 70
    32
 40
-3.0
  0
TCOPTIONALDATA
  5
1B9
102
{ACAD_REACTORS
330
1B8
102
}
330
1B8
100
TcOptionalData
 70
     1
 70
    32
 40
-3.0
  0
TCOPTIONALDATA
  5
1BC
102
{ACAD_REACTORS
330
1BB
102
}
330
1BB
100
TcOptionalData
 70
     1
 70
    32
 40
-3.0
  0
TCOPTIONALDATA
  5
1BF
102
{ACAD_REACTORS
330
1BE
102
}
330
1BE
100
TcOptionalData
 70
     1
 70
    32
 40
-3.0
  0
TCOPTIONALDATA
  5
1C2
102
{ACAD_REACTORS
330
1C1
102
}
330
1C1
100
TcOptionalData
 70
     1
 70
    32
 40
-3.0
  0
TCOPTIONALDATA
  5
1C5
102
{ACAD_REACTORS
330
1C4
102
}
330
1C4
100
TcOptionalData
 70
     1
 70
    32
 40
-3.0
  0
TCOPTIONALDATA
  5
1C8
102
{ACAD_REACTORS
330
1C7
102
}
330
1C7
100
TcOptionalData
 70
     1
 70
    32
 40
-3.0
  0
TCOPTIONALDATA
  5
1CB
102
{ACAD_REACTORS
330
1CA
102
}
330
1CA
100
TcOptionalData
 70
     1
 70
    32
 40
-3.0
  0
TCOPTIONALDATA
  5
1CE
102
{ACAD_REACTORS
330
1CD
102
}
330
1CD
100
TcOptionalData
 70
     1
 70
    32
 40
-3.0
  0
TCOPTIONALDATA
  5
1D1
102
{ACAD_REACTORS
330
1D0
102
}
330
1D0
100
TcOptionalData
 70
     1
 70
    32
 40
-3.0
  0
TCOPTIONALDATA
  5
1D4
102
{ACAD_REACTORS
330
1D3
102
}
330
1D3
100
TcOptionalData
 70
     1
 70
    32
 40
-3.0
  0
TCOPTIONALDATA
  5
1D7
102
{ACAD_REACTORS
330
1D6
102
}
330
1D6
100
TcOptionalData
 70
     1
 70
    32
 40
-3.0
  0
TCOPTIONALDATA
  5
1DA
102
{ACAD_REACTORS
330
1D9
102
}
330
1D9
100
TcOptionalData
 70
     1
 70
    32
 40
-3.0
  0
TCOPTIONALDATA
  5
1DD
102
{ACAD_REACTORS
330
1DC
102
}
330
1DC
100
TcOptionalData
 70
     1
 70
    32
 40
-3.0
  0
TCOPTIONALDATA
  5
1E0
102
{ACAD_REACTORS
330
1DF
102
}
330
1DF
100
TcOptionalData
 70
     1
 70
    32
 40
-3.0
  0
TCOPTIONALDATA
  5
1E3
102
{ACAD_REACTORS
330
1E2
102
}
330
1E2
100
TcOptionalData
 70
     1
 70
    32
 40
-3.0
  0
TCOPTIONALDATA
  5
1E6
102
{ACAD_REACTORS
330
1E5
102
}
330
1E5
100
TcOptionalData
 70
     1
 70
    32
 40
-3.0
  0
TCOPTIONALDATA
  5
1E9
102
{ACAD_REACTORS
330
1E8
102
}
330
1E8
100
TcOptionalData
 70
     1
 70
    32
 40
-3.0
  0
TCOPTIONALDATA
  5
1EC
102
{ACAD_REACTORS
330
1EB
102
}
330
1EB
100
TcOptionalData
 70
     1
 70
    32
 40
-3.0
  0
TCOPTIONALDATA
  5
1EF
102
{ACAD_REACTORS
330
1EE
102
}
330
1EE
100
TcOptionalData
 70
     1
 70
    32
 40
-3.0
  0
TCOPTIONALDATA
  5
1F2
102
{ACAD_REACTORS
330
1F1
102
}
330
1F1
100
TcOptionalData
 70
     1
 70
    32
 40
-3.0
  0
TCOPTIONALDATA
  5
1F5
102
{ACAD_REACTORS
330
1F4
102
}
330
1F4
100
TcOptionalData
 70
     1
 70
    32
 40
-3.0
  0
TCOPTIONALDATA
  5
1F8
102
{ACAD_REACTORS
330
1F7
102
}
330
1F7
100
TcOptionalData
 70
     1
 70
    32
 40
-3.0
  0
TCOPTIONALDATA
  5
1FB
102
{ACAD_REACTORS
330
1FA
102
}
330
1FA
100
TcOptionalData
 70
     1
 70
    32
 40
-3.0
  0
TCOPTIONALDATA
  5
1FE
102
{ACAD_REACTORS
330
1FD
102
}
330
1FD
100
TcOptionalData
 70
     1
 70
    32
 40
-3.0
  0
TCOPTIONALDATA
  5
201
102
{ACAD_REACTORS
330
200
102
}
330
200
100
TcOptionalData
 70
     1
 70
    32
 40
-3.0
  0
TCOPTIONALDATA
  5
204
102
{ACAD_REACTORS
330
203
102
}
330
203
100
TcOptionalData
 70
     1
 70
    32
 40
-3.0
  0
TCOPTIONALDATA
  5
207
102
{ACAD_REACTORS
330
206
102
}
330
206
100
TcOptionalData
 70
     1
 70
    32
 40
-3.0
  0
TCOPTIONALDATA
  5
20A
102
{ACAD_REACTORS
330
209
102
}
330
209
100
TcOptionalData
 70
     1
 70
    32
 40
-3.0
  0
TCOPTIONALDATA
  5
20D
102
{ACAD_REACTORS
330
20C
102
}
330
20C
100
TcOptionalData
 70
     1
 70
    32
 40
-3.0
  0
TCOPTIONALDATA
  5
210
102
{ACAD_REACTORS
330
20F
102
}
330
20F
100
TcOptionalData
 70
     1
 70
    32
 40
-3.0
  0
TCOPTIONALDATA
  5
213
102
{ACAD_REACTORS
330
212
102
}
330
212
100
TcOptionalData
 70
     1
 70
    32
 40
-3.0
  0
TCOPTIONALDATA
  5
216
102
{ACAD_REACTORS
330
215
102
}
330
215
100
TcOptionalData
 70
     1
 70
    32
 40
-3.0
  0
TCOPTIONALDATA
  5
219
102
{ACAD_REACTORS
330
218
102
}
330
218
100
TcOptionalData
 70
     1
 70
    32
 40
-3.0
  0
TCOPTIONALDATA
  5
21C
102
{ACAD_REACTORS
330
21B
102
}
330
21B
100
TcOptionalData
 70
     1
 70
    32
 40
-3.0
  0
TCOPTIONALDATA
  5
21F
102
{ACAD_REACTORS
330
21E
102
}
330
21E
100
TcOptionalData
 70
     1
 70
    32
 40
-3.0
  0
TCOPTIONALDATA
  5
222
102
{ACAD_REACTORS
330
221
102
}
330
221
100
TcOptionalData
 70
     1
 70
    32
 40
-3.0
  0
TCOPTIONALDATA
  5
225
102
{ACAD_REACTORS
330
224
102
}
330
224
100
TcOptionalData
 70
     1
 70
    32
 40
-3.0
  0
TCOPTIONALDATA
  5
228
102
{ACAD_REACTORS
330
227
102
}
330
227
100
TcOptionalData
 70
     1
 70
    32
 40
-3.0
  0
TCOPTIONALDATA
  5
22B
102
{ACAD_REACTORS
330
22A
102
}
330
22A
100
TcOptionalData
 70
     1
 70
    32
 40
-3.0
  0
TCOPTIONALDATA
  5
22E
102
{ACAD_REACTORS
330
22D
102
}
330
22D
100
TcOptionalData
 70
     1
 70
    32
 40
-3.0
  0
TCOPTIONALDATA
  5
231
102
{ACAD_REACTORS
330
230
102
}
330
230
100
TcOptionalData
 70
     1
 70
    32
 40
-3.0
  0
TCOPTIONALDATA
  5
234
102
{ACAD_REACTORS
330
233
102
}
330
233
100
TcOptionalData
 70
     1
 70
    32
 40
-3.0
  0
TCOPTIONALDATA
  5
237
102
{ACAD_REACTORS
330
236
102
}
330
236
100
TcOptionalData
 70
     1
 70
    32
 40
-3.0
  0
TCOPTIONALDATA
  5
23A
102
{ACAD_REACTORS
330
239
102
}
330
239
100
TcOptionalData
 70
     1
 70
    32
 40
-3.0
  0
TCOPTIONALDATA
  5
23D
102
{ACAD_REACTORS
330
23C
102
}
330
23C
100
TcOptionalData
 70
     1
 70
    32
 40
-3.0
  0
TCOPTIONALDATA
  5
240
102
{ACAD_REACTORS
330
23F
102
}
330
23F
100
TcOptionalData
 70
     1
 70
    32
 40
-3.0
  0
TCOPTIONALDATA
  5
243
102
{ACAD_REACTORS
330
242
102
}
330
242
100
TcOptionalData
 70
     1
 70
    32
 40
-3.0
  0
TCOPTIONALDATA
  5
246
102
{ACAD_REACTORS
330
245
102
}
330
245
100
TcOptionalData
 70
     1
 70
    32
 40
-3.0
  0
TCOPTIONALDATA
  5
249
102
{ACAD_REACTORS
330
248
102
}
330
248
100
TcOptionalData
 70
     1
 70
    32
 40
-3.0
  0
TCOPTIONALDATA
  5
24C
102
{ACAD_REACTORS
330
24B
102
}
330
24B
100
TcOptionalData
 70
     1
 70
    32
 40
-3.0
  0
TCOPTIONALDATA
  5
24F
102
{ACAD_REACTORS
330
24E
102
}
330
24E
100
TcOptionalData
 70
     1
 70
    32
 40
-3.0
  0
TCOPTIONALDATA
  5
252
102
{ACAD_REACTORS
330
251
102
}
330
251
100
TcOptionalData
 70
     1
 70
    32
 40
-3.0
  0
TCOPTIONALDATA
  5
255
102
{ACAD_REACTORS
330
254
102
}
330
254
100
TcOptionalData
 70
     1
 70
    32
 40
-3.0
  0
TCOPTIONALDATA
  5
258
102
{ACAD_REACTORS
330
257
102
}
330
257
100
TcOptionalData
 70
     1
 70
    32
 40
-3.0
  0
TCOPTIONALDATA
  5
25B
102
{ACAD_REACTORS
330
25A
102
}
330
25A
100
TcOptionalData
 70
     1
 70
    32
 40
-3.0
  0
TCOPTIONALDATA
  5
25E
102
{ACAD_REACTORS
330
25D
102
}
330
25D
100
TcOptionalData
 70
     1
 70
    32
 40
-3.0
  0
TCOPTIONALDATA
  5
261
102
{ACAD_REACTORS
330
260
102
}
330
260
100
TcOptionalData
 70
     1
 70
    32
 40
-3.0
  0
TCOPTIONALDATA
  5
264
102
{ACAD_REACTORS
330
263
102
}
330
263
100
TcOptionalData
 70
     1
 70
    32
 40
-3.0
  0
TCOPTIONALDATA
  5
267
102
{ACAD_REACTORS
330
266
102
}
330
266
100
TcOptionalData
 70
     1
 70
    32
 40
-3.0
  0
TCOPTIONALDATA
  5
26A
102
{ACAD_REACTORS
330
269
102
}
330
269
100
TcOptionalData
 70
     1
 70
    32
 40
-3.0
  0
TCOPTIONALDATA
  5
26D
102
{ACAD_REACTORS
330
26C
102
}
330
26C
100
TcOptionalData
 70
     1
 70
    32
 40
-3.0
  0
TCOPTIONALDATA
  5
270
102
{ACAD_REACTORS
330
26F
102
}
330
26F
100
TcOptionalData
 70
     1
 70
    32
 40
-3.0
  0
TCOPTIONALDATA
  5
273
102
{ACAD_REACTORS
330
272
102
}
330
272
100
TcOptionalData
 70
     1
 70
    32
 40
-3.0
  0
TCOPTIONALDATA
  5
276
102
{ACAD_REACTORS
330
275
102
}
330
275
100
TcOptionalData
 70
     1
 70
    32
 40
-3.0
  0
TCOPTIONALDATA
  5
279
102
{ACAD_REACTORS
330
278
102
}
330
278
100
TcOptionalData
 70
     1
 70
    32
 40
-3.0
  0
TCOPTIONALDATA
  5
27C
102
{ACAD_REACTORS
330
27B
102
}
330
27B
100
TcOptionalData
 70
     1
 70
    32
 40
-3.0
  0
TCOPTIONALDATA
  5
27F
102
{ACAD_REACTORS
330
27E
102
}
330
27E
100
TcOptionalData
 70
     1
 70
    32
 40
-3.0
  0
TCOPTIONALDATA
  5
282
102
{ACAD_REACTORS
330
281
102
}
330
281
100
TcOptionalData
 70
     1
 70
    32
 40
-3.0
  0
TCOPTIONALDATA
  5
285
102
{ACAD_REACTORS
330
284
102
}
330
284
100
TcOptionalData
 70
     1
 70
    32
 40
-3.0
  0
TCOPTIONALDATA
  5
288
102
{ACAD_REACTORS
330
287
102
}
330
287
100
TcOptionalData
 70
     1
 70
    32
 40
-3.0
  0
TCOPTIONALDATA
  5
28B
102
{ACAD_REACTORS
330
28A
102
}
330
28A
100
TcOptionalData
 70
     1
 70
    32
 40
-3.0
  0
TCOPTIONALDATA
  5
28E
102
{ACAD_REACTORS
330
28D
102
}
330
28D
100
TcOptionalData
 70
     1
 70
    32
 40
-3.0
  0
TCOPTIONALDATA
  5
291
102
{ACAD_REACTORS
330
290
102
}
330
290
100
TcOptionalData
 70
     1
 70
    32
 40
-3.0
  0
TCOPTIONALDATA
  5
294
102
{ACAD_REACTORS
330
293
102
}
330
293
100
TcOptionalData
 70
     1
 70
    32
 40
-3.0
  0
TCOPTIONALDATA
  5
297
102
{ACAD_REACTORS
330
296
102
}
330
296
100
TcOptionalData
 70
     1
 70
    32
 40
-3.0
  0
TCOPTIONALDATA
  5
29A
102
{ACAD_REACTORS
330
299
102
}
330
299
100
TcOptionalData
 70
     1
 70
    32
 40
-3.0
  0
TCOPTIONALDATA
  5
29D
102
{ACAD_REACTORS
330
29C
102
}
330
29C
100
TcOptionalData
 70
     1
 70
    32
 40
-3.0
  0
TCOPTIONALDATA
  5
2A0
102
{ACAD_REACTORS
330
29F
102
}
330
29F
100
TcOptionalData
 70
     1
 70
    32
 40
-3.0
  0
TCOPTIONALDATA
  5
2A3
102
{ACAD_REACTORS
330
2A2
102
}
330
2A2
100
TcOptionalData
 70
     1
 70
    32
 40
-3.0
  0
TCOPTIONALDATA
  5
2AE
102
{ACAD_REACTORS
330
2AD
102
}
330
2AD
100
TcOptionalData
 70
     1
 70
    32
 40
-3.0
  0
TCOPTIONALDATA
  5
2B1
102
{ACAD_REACTORS
330
2B0
102
}
330
2B0
100
TcOptionalData
 70
     1
 70
    32
 40
-3.0
  0
TCOPTIONALDATA
  5
2B4
102
{ACAD_REACTORS
330
2B3
102
}
330
2B3
100
TcOptionalData
 70
     1
 70
    32
 40
-3.0
  0
TCOPTIONALDATA
  5
2B7
102
{ACAD_REACTORS
330
2B6
102
}
330
2B6
100
TcOptionalData
 70
     1
 70
    32
 40
-3.0
  0
TCOPTIONALDATA
  5
2BA
102
{ACAD_REACTORS
330
2B9
102
}
330
2B9
100
TcOptionalData
 70
     1
 70
    32
 40
-3.0
  0
TCOPTIONALDATA
  5
2BD
102
{ACAD_REACTORS
330
2BC
102
}
330
2BC
100
TcOptionalData
 70
     1
 70
    32
 40
-3.0
  0
TCOPTIONALDATA
  5
2C0
102
{ACAD_REACTORS
330
2BF
102
}
330
2BF
100
TcOptionalData
 70
     1
 70
    32
 40
-3.0
  0
TCOPTIONALDATA
  5
2C3
102
{ACAD_REACTORS
330
2C2
102
}
330
2C2
100
TcOptionalData
 70
     1
 70
    32
 40
-3.0
  0
TCOPTIONALDATA
  5
2C6
102
{ACAD_REACTORS
330
2C5
102
}
330
2C5
100
TcOptionalData
 70
     1
 70
    32
 40
-3.0
  0
TCOPTIONALDATA
  5
2C9
102
{ACAD_REACTORS
330
2C8
102
}
330
2C8
100
TcOptionalData
 70
     1
 70
    32
 40
-3.0
  0
TCOPTIONALDATA
  5
2CC
102
{ACAD_REACTORS
330
2CB
102
}
330
2CB
100
TcOptionalData
 70
     1
 70
    32
 40
-3.0
  0
TCOPTIONALDATA
  5
2CF
102
{ACAD_REACTORS
330
2CE
102
}
330
2CE
100
TcOptionalData
 70
     1
 70
    32
 40
-3.0
  0
TCOPTIONALDATA
  5
2D2
102
{ACAD_REACTORS
330
2D1
102
}
330
2D1
100
TcOptionalData
 70
     1
 70
    32
 40
-3.0
  0
TCOPTIONALDATA
  5
2D5
102
{ACAD_REACTORS
330
2D4
102
}
330
2D4
100
TcOptionalData
 70
     1
 70
    32
 40
-3.0
  0
TCOPTIONALDATA
  5
2D8
102
{ACAD_REACTORS
330
2D7
102
}
330
2D7
100
TcOptionalData
 70
     1
 70
    32
 40
-3.0
  0
TCOPTIONALDATA
  5
2DB
102
{ACAD_REACTORS
330
2DA
102
}
330
2DA
100
TcOptionalData
 70
     1
 70
    32
 40
-3.0
  0
TCOPTIONALDATA
  5
2E0
102
{ACAD_REACTORS
330
2DF
102
}
330
2DF
100
TcOptionalData
 70
     1
 70
    32
 40
-3.0
  0
TCOPTIONALDATA
  5
2E3
102
{ACAD_REACTORS
330
2E2
102
}
330
2E2
100
TcOptionalData
 70
     1
 70
    32
 40
-3.0
  0
TCOPTIONALDATA
  5
2E6
102
{ACAD_REACTORS
330
2E5
102
}
330
2E5
100
TcOptionalData
 70
     1
 70
    32
 40
-3.0
  0
TCOPTIONALDATA
  5
2E9
102
{ACAD_REACTORS
330
2E8
102
}
330
2E8
100
TcOptionalData
 70
     1
 70
    32
 40
-3.0
  0
TCOPTIONALDATA
  5
2EC
102
{ACAD_REACTORS
330
2EB
102
}
330
2EB
100
TcOptionalData
 70
     1
 70
    32
 40
-3.0
  0
TCOPTIONALDATA
  5
2EF
102
{ACAD_REACTORS
330
2EE
102
}
330
2EE
100
TcOptionalData
 70
     1
 70
    32
 40
-3.0
  0
TCOPTIONALDATA
  5
2F2
102
{ACAD_REACTORS
330
2F1
102
}
330
2F1
100
TcOptionalData
 70
     1
 70
    32
 40
-3.0
  0
TCOPTIONALDATA
  5
2F5
102
{ACAD_REACTORS
330
2F4
102
}
330
2F4
100
TcOptionalData
 70
     1
 70
    32
 40
-3.0
  0
TCOPTIONALDATA
  5
2F8
102
{ACAD_REACTORS
330
2F7
102
}
330
2F7
100
TcOptionalData
 70
     1
 70
    32
 40
-3.0
  0
TCOPTIONALDATA
  5
2FB
102
{ACAD_REACTORS
330
2FA
102
}
330
2FA
100
TcOptionalData
 70
     1
 70
    32
 40
-3.0
  0
TCOPTIONALDATA
  5
2FE
102
{ACAD_REACTORS
330
2FD
102
}
330
2FD
100
TcOptionalData
 70
     1
 70
    32
 40
-3.0
  0
TCOPTIONALDATA
  5
301
102
{ACAD_REACTORS
330
300
102
}
330
300
100
TcOptionalData
 70
     1
 70
    32
 40
-3.0
  0
TCOPTIONALDATA
  5
304
102
{ACAD_REACTORS
330
303
102
}
330
303
100
TcOptionalData
 70
     1
 70
    32
 40
-3.0
  0
TCOPTIONALDATA
  5
307
102
{ACAD_REACTORS
330
306
102
}
330
306
100
TcOptionalData
 70
     1
 70
    32
 40
-3.0
  0
TCOPTIONALDATA
  5
30A
102
{ACAD_REACTORS
330
309
102
}
330
309
100
TcOptionalData
 70
     1
 70
    32
 40
-3.0
  0
TCOPTIONALDATA
  5
30D
102
{ACAD_REACTORS
330
30C
102
}
330
30C
100
TcOptionalData
 70
     1
 70
    32
 40
-3.0
  0
TCOPTIONALDATA
  5
311
102
{ACAD_REACTORS
330
310
102
}
330
310
100
TcOptionalData
 70
     1
 70
     2
 10
84.34053844928741
 20
148.832003
 30
0.0
  0
TCOPTIONALDATA
  5
314
102
{ACAD_REACTORS
330
313
102
}
330
313
100
TcOptionalData
 70
     1
 70
    32
 40
-3.0
  0
TCOPTIONALDATA
  5
317
102
{ACAD_REACTORS
330
316
102
}
330
316
100
TcOptionalData
 70
     1
 70
    32
 40
-3.0
  0
TCOPTIONALDATA
  5
31A
102
{ACAD_REACTORS
330
319
102
}
330
319
100
TcOptionalData
 70
     1
 70
    32
 40
-3.0
  0
TCOPTIONALDATA
  5
31D
102
{ACAD_REACTORS
330
31C
102
}
330
31C
100
TcOptionalData
 70
     1
 70
    32
 40
-3.0
  0
TCOPTIONALDATA
  5
322
102
{ACAD_REACTORS
330
321
102
}
330
321
100
TcOptionalData
 70
     1
 70
    32
 40
-3.0
  0
TCOPTIONALDATA
  5
325
102
{ACAD_REACTORS
330
324
102
}
330
324
100
TcOptionalData
 70
     1
 70
    32
 40
-3.0
  0
TCOPTIONALDATA
  5
328
102
{ACAD_REACTORS
330
327
102
}
330
327
100
TcOptionalData
 70
     1
 70
    32
 40
-3.0
  0
TCOPTIONALDATA
  5
32B
102
{ACAD_REACTORS
330
32A
102
}
330
32A
100
TcOptionalData
 70
     1
 70
    32
 40
-3.0
  0
TCOPTIONALDATA
  5
32E
102
{ACAD_REACTORS
330
32D
102
}
330
32D
100
TcOptionalData
 70
     1
 70
    32
 40
-3.0
  0
TCOPTIONALDATA
  5
331
102
{ACAD_REACTORS
330
330
102
}
330
330
100
TcOptionalData
 70
     1
 70
    32
 40
-3.0
  0
TCOPTIONALDATA
  5
334
102
{ACAD_REACTORS
330
333
102
}
330
333
100
TcOptionalData
 70
     1
 70
    32
 40
-3.0
  0
TCOPTIONALDATA
  5
337
102
{ACAD_REACTORS
330
336
102
}
330
336
100
TcOptionalData
 70
     1
 70
    32
 40
-3.0
  0
TCOPTIONALDATA
  5
33A
102
{ACAD_REACTORS
330
339
102
}
330
339
100
TcOptionalData
 70
     1
 70
    32
 40
-3.0
  0
TCOPTIONALDATA
  5
33D
102
{ACAD_REACTORS
330
33C
102
}
330
33C
100
TcOptionalData
 70
     1
 70
    32
 40
-3.0
  0
TCOPTIONALDATA
  5
340
102
{ACAD_REACTORS
330
33F
102
}
330
33F
100
TcOptionalData
 70
     1
 70
    32
 40
-3.0
  0
TCOPTIONALDATA
  5
343
102
{ACAD_REACTORS
330
342
102
}
330
342
100
TcOptionalData
 70
     1
 70
    32
 40
-3.0
  0
TCOPTIONALDATA
  5
346
102
{ACAD_REACTORS
330
345
102
}
330
345
100
TcOptionalData
 70
     1
 70
    32
 40
-3.0
  0
TCOPTIONALDATA
  5
349
102
{ACAD_REACTORS
330
348
102
}
330
348
100
TcOptionalData
 70
     1
 70
    32
 40
-3.0
  0
TCOPTIONALDATA
  5
34C
102
{ACAD_REACTORS
330
34B
102
}
330
34B
100
TcOptionalData
 70
     1
 70
    32
 40
-3.0
  0
TCOPTIONALDATA
  5
34F
102
{ACAD_REACTORS
330
34E
102
}
330
34E
100
TcOptionalData
 70
     1
 70
    32
 40
-3.0
  0
TCOPTIONALDATA
  5
352
102
{ACAD_REACTORS
330
351
102
}
330
351
100
TcOptionalData
 70
     1
 70
    32
 40
-3.0
  0
TCOPTIONALDATA
  5
355
102
{ACAD_REACTORS
330
354
102
}
330
354
100
TcOptionalData
 70
     1
 70
    32
 40
-3.0
  0
TCOPTIONALDATA
  5
358
102
{ACAD_REACTORS
330
357
102
}
330
357
100
TcOptionalData
 70
     1
 70
    32
 40
-3.0
  0
TCOPTIONALDATA
  5
35B
102
{ACAD_REACTORS
330
35A
102
}
330
35A
100
TcOptionalData
 70
     1
 70
    32
 40
-3.0
  0
TCOPTIONALDATA
  5
35E
102
{ACAD_REACTORS
330
35D
102
}
330
35D
100
TcOptionalData
 70
     1
 70
    32
 40
-3.0
  0
TCOPTIONALDATA
  5
361
102
{ACAD_REACTORS
330
360
102
}
330
360
100
TcOptionalData
 70
     1
 70
    32
 40
-3.0
  0
TCOPTIONALDATA
  5
365
102
{ACAD_REACTORS
330
364
102
}
330
364
100
TcOptionalData
 70
     1
 70
    32
 40
-3.0
  0
TCOPTIONALDATA
  5
368
102
{ACAD_REACTORS
330
367
102
}
330
367
100
TcOptionalData
 70
     1
 70
    32
 40
-3.0
  0
TCOPTIONALDATA
  5
36B
102
{ACAD_REACTORS
330
36A
102
}
330
36A
100
TcOptionalData
 70
     1
 70
    32
 40
-3.0
  0
TCOPTIONALDATA
  5
36E
102
{ACAD_REACTORS
330
36D
102
}
330
36D
100
TcOptionalData
 70
     1
 70
    32
 40
-3.0
  0
TCOPTIONALDATA
  5
371
102
{ACAD_REACTORS
330
370
102
}
330
370
100
TcOptionalData
 70
     1
 70
    32
 40
-3.0
  0
TCOPTIONALDATA
  5
374
102
{ACAD_REACTORS
330
373
102
}
330
373
100
TcOptionalData
 70
     1
 70
    32
 40
-3.0
  0
TCOPTIONALDATA
  5
377
102
{ACAD_REACTORS
330
376
102
}
330
376
100
TcOptionalData
 70
     1
 70
    32
 40
-3.0
  0
TCOPTIONALDATA
  5
37A
102
{ACAD_REACTORS
330
379
102
}
330
379
100
TcOptionalData
 70
     1
 70
    32
 40
-3.0
  0
TCOPTIONALDATA
  5
37F
102
{ACAD_REACTORS
330
37E
102
}
330
37E
100
TcOptionalData
 70
     1
 70
    32
 40
-3.0
  0
TCOPTIONALDATA
  5
382
102
{ACAD_REACTORS
330
381
102
}
330
381
100
TcOptionalData
 70
     1
 70
    32
 40
-3.0
  0
TCOPTIONALDATA
  5
385
102
{ACAD_REACTORS
330
384
102
}
330
384
100
TcOptionalData
 70
     1
 70
    32
 40
-3.0
  0
TCOPTIONALDATA
  5
388
102
{ACAD_REACTORS
330
387
102
}
330
387
100
TcOptionalData
 70
     1
 70
    32
 40
-3.0
  0
TCOPTIONALDATA
  5
38B
102
{ACAD_REACTORS
330
38A
102
}
330
38A
100
TcOptionalData
 70
     1
 70
    32
 40
-3.0
  0
TCOPTIONALDATA
  5
38E
102
{ACAD_REACTORS
330
38D
102
}
330
38D
100
TcOptionalData
 70
     1
 70
    32
 40
-3.0
  0
TCOPTIONALDATA
  5
391
102
{ACAD_REACTORS
330
390
102
}
330
390
100
TcOptionalData
 70
     1
 70
    32
 40
-3.0
  0
TCOPTIONALDATA
  5
394
102
{ACAD_REACTORS
330
393
102
}
330
393
100
TcOptionalData
 70
     1
 70
    32
 40
-3.0
  0
TCOPTIONALDATA
  5
397
102
{ACAD_REACTORS
330
396
102
}
330
396
100
TcOptionalData
 70
     1
 70
    32
 40
-3.0
  0
TCOPTIONALDATA
  5
39A
102
{ACAD_REACTORS
330
399
102
}
330
399
100
TcOptionalData
 70
     1
 70
    32
 40
-3.0
  0
TCOPTIONALDATA
  5
39D
102
{ACAD_REACTORS
330
39C
102
}
330
39C
100
TcOptionalData
 70
     1
 70
    32
 40
-3.0
  0
TCOPTIONALDATA
  5
3A0
102
{ACAD_REACTORS
330
39F
102
}
330
39F
100
TcOptionalData
 70
     1
 70
    32
 40
-3.0
  0
TCOPTIONALDATA
  5
3A3
102
{ACAD_REACTORS
330
3A2
102
}
330
3A2
100
TcOptionalData
 70
     1
 70
    32
 40
-3.0
  0
TCOPTIONALDATA
  5
3A6
102
{ACAD_REACTORS
330
3A5
102
}
330
3A5
100
TcOptionalData
 70
     1
 70
    32
 40
-3.0
  0
TCOPTIONALDATA
  5
3A9
102
{ACAD_REACTORS
330
3A8
102
}
330
3A8
100
TcOptionalData
 70
     1
 70
    32
 40
-3.0
  0
TCOPTIONALDATA
  5
3AC
102
{ACAD_REACTORS
330
3AB
102
}
330
3AB
100
TcOptionalData
 70
     1
 70
    32
 40
-3.0
  0
TCOPTIONALDATA
  5
3AF
102
{ACAD_REACTORS
330
3AE
102
}
330
3AE
100
TcOptionalData
 70
     1
 70
    32
 40
-3.0
  0
TCOPTIONALDATA
  5
3B2
102
{ACAD_REACTORS
330
3B1
102
}
330
3B1
100
TcOptionalData
 70
     1
 70
    32
 40
-3.0
  0
TCOPTIONALDATA
  5
3B9
102
{ACAD_REACTORS
330
3B8
102
}
330
3B8
100
TcOptionalData
 70
     1
 70
     2
 10
104.9841364492874
 20
103.616007
 30
0.0
  0
TCOPTIONALDATA
  5
3BE
102
{ACAD_REACTORS
330
3BD
102
}
330
3BD
100
TcOptionalData
 70
     1
 70
    32
 40
-3.0
  0
TCOPTIONALDATA
  5
3C1
102
{ACAD_REACTORS
330
3C0
102
}
330
3C0
100
TcOptionalData
 70
     1
 70
    32
 40
-3.0
  0
TCOPTIONALDATA
  5
3C4
102
{ACAD_REACTORS
330
3C3
102
}
330
3C3
100
TcOptionalData
 70
     1
 70
     2
 10
41.81780093567
 20
182.6286946660984
 30
0.0
  0
TCOPTIONALDATA
  5
3C7
102
{ACAD_REACTORS
330
3C6
102
}
330
3C6
100
TcOptionalData
 70
     1
 70
    32
 40
-3.0
  0
TCOPTIONALDATA
  5
3CA
102
{ACAD_REACTORS
330
3C9
102
}
330
3C9
100
TcOptionalData
 70
     1
 70
    32
 40
-3.0
  0
TCOPTIONALDATA
  5
3CD
102
{ACAD_REACTORS
330
3CC
102
}
330
3CC
100
TcOptionalData
 70
     1
 70
    32
 40
-3.0
  0
TCOPTIONALDATA
  5
3D0
102
{ACAD_REACTORS
330
3CF
102
}
330
3CF
100
TcOptionalData
 70
     1
 70
    32
 40
-3.0
  0
TCOPTIONALDATA
  5
3D3
102
{ACAD_REACTORS
330
3D2
102
}
330
3D2
100
TcOptionalData
 70
     1
 70
    32
 40
-3.0
  0
TCOPTIONALDATA
  5
3D6
102
{ACAD_REACTORS
330
3D5
102
}
330
3D5
100
TcOptionalData
 70
     1
 70
    32
 40
-3.0
  0
TCOPTIONALDATA
  5
3DB
102
{ACAD_REACTORS
330
3DA
102
}
330
3DA
100
TcOptionalData
 70
     1
 70
     2
 10
180.936501441869
 20
32.18741333495194
 30
0.0
  0
TCOPTIONALDATA
  5
3E0
102
{ACAD_REACTORS
330
3DF
102
}
330
3DF
100
TcOptionalData
 70
     1
 70
     2
 10
4.294273
 20
82.25060029358863
 30
0.0
  0
TCOPTIONALDATA
  5
3E3
102
{ACAD_REACTORS
330
3E2
102
}
330
3E2
100
TcOptionalData
 70
     1
 70
     2
 10
174.100397
 20
68.31410929358864
 30
0.0
  0
TCOPTIONALDATA
  5
3E8
102
{ACAD_REACTORS
330
3E7
102
}
330
3E7
100
TcOptionalData
 70
     1
 70
     2
 10
43.912745
 20
49.95920055071259
 30
0.0
  0
TCOPTIONALDATA
  5
3EB
102
{ACAD_REACTORS
330
3EA
102
}
330
3EA
100
TcOptionalData
 70
     1
 70
    32
 40
-3.0
  0
TCOPTIONALDATA
  5
3EE
102
{ACAD_REACTORS
330
3ED
102
}
330
3ED
100
TcOptionalData
 70
     1
 70
    32
 40
-3.0
  0
TCOPTIONALDATA
  5
3F1
102
{ACAD_REACTORS
330
3F0
102
}
330
3F0
100
TcOptionalData
 70
     1
 70
    32
 40
-3.0
  0
TCOPTIONALDATA
  5
3F4
102
{ACAD_REACTORS
330
3F3
102
}
330
3F3
100
TcOptionalData
 70
     1
 70
    32
 40
-3.0
  0
TCOPTIONALDATA
  5
3F7
102
{ACAD_REACTORS
330
3F6
102
}
330
3F6
100
TcOptionalData
 70
     1
 70
   128
 90
        1
  1
#$AUX@_ToolInfo Properties
 70
     8
  1
CMD_LINE@
  0
TCOPTIONALDATA
  5
3FA
102
{ACAD_REACTORS
330
3F9
102
}
330
3F9
100
TcOptionalData
 70
     1
 70
    32
 40
-3.0
  0
TCOPTIONALDATA
  5
3FD
102
{ACAD_REACTORS
330
3FC
102
}
330
3FC
100
TcOptionalData
 70
     1
 70
    32
 40
-3.0
  0
TCOPTIONALDATA
  5
400
102
{ACAD_REACTORS
330
3FF
102
}
330
3FF
100
TcOptionalData
 70
     1
 70
    32
 40
-3.0
  0
TCOPTIONALDATA
  5
403
102
{ACAD_REACTORS
330
402
102
}
330
402
100
TcOptionalData
 70
     1
 70
    32
 40
-3.0
  0
TCOPTIONALDATA
  5
406
102
{ACAD_REACTORS
330
405
102
}
330
405
100
TcOptionalData
 70
     1
 70
    32
 40
-3.0
  0
TCOPTIONALDATA
  5
409
102
{ACAD_REACTORS
330
408
102
}
330
408
100
TcOptionalData
 70
     1
 70
    32
 40
-3.0
  0
TCOPTIONALDATA
  5
40C
102
{ACAD_REACTORS
330
40B
102
}
330
40B
100
TcOptionalData
 70
     1
 70
    32
 40
-3.0
  0
TCOPTIONALDATA
  5
40F
102
{ACAD_REACTORS
330
40E
102
}
330
40E
100
TcOptionalData
 70
     1
 70
    32
 40
-3.0
  0
TCOPTIONALDATA
  5
412
102
{ACAD_REACTORS
330
411
102
}
330
411
100
TcOptionalData
 70
     1
 70
    32
 40
-3.0
  0
TCOPTIONALDATA
  5
415
102
{ACAD_REACTORS
330
414
102
}
330
414
100
TcOptionalData
 70
     1
 70
    32
 40
-3.0
  0
TCOPTIONALDATA
  5
418
102
{ACAD_REACTORS
330
417
102
}
330
417
100
TcOptionalData
 70
     1
 70
    32
 40
-3.0
  0
TCOPTIONALDATA
  5
41B
102
{ACAD_REACTORS
330
41A
102
}
330
41A
100
TcOptionalData
 70
     1
 70
    32
 40
-3.0
  0
TCOPTIONALDATA
  5
41E
102
{ACAD_REACTORS
330
41D
102
}
330
41D
100
TcOptionalData
 70
     1
 70
    32
 40
-3.0
  0
TCOPTIONALDATA
  5
421
102
{ACAD_REACTORS
330
420
102
}
330
420
100
TcOptionalData
 70
     1
 70
    32
 40
-3.0
  0
TCOPTIONALDATA
  5
424
102
{ACAD_REACTORS
330
423
102
}
330
423
100
TcOptionalData
 70
     1
 70
    32
 40
-3.0
  0
TCOPTIONALDATA
  5
427
102
{ACAD_REACTORS
330
426
102
}
330
426
100
TcOptionalData
 70
     1
 70
    32
 40
-3.0
  0
TCOPTIONALDATA
  5
42A
102
{ACAD_REACTORS
330
429
102
}
330
429
100
TcOptionalData
 70
     1
 70
    32
 40
-3.0
  0
TCOPTIONALDATA
  5
42D
102
{ACAD_REACTORS
330
42C
102
}
330
42C
100
TcOptionalData
 70
     1
 70
    32
 40
-3.0
  0
TCOPTIONALDATA
  5
430
102
{ACAD_REACTORS
330
42F
102
}
330
42F
100
TcOptionalData
 70
     1
 70
    32
 40
-3.0
  0
GROUP
  5
43F
102
{ACAD_REACTORS
330
D
102
}
330
D
100
AcDbGroup
300

 70
     0
 71
     1
340
3FB
340
3FE
340
401
340
404
340
407
340
40A
340
40D
340
410
340
413
340
416
340
419
340
41C
340
41F
340
422
340
425
340
428
340
42B
340
42E
340
431
340
433
340
435
340
437
340
438
340
43A
340
43C
340
43E
  0
LAYOUT
  5
1E
102
{ACAD_REACTORS
330
1A
102
}
330
1A
100
AcDbPlotSettings
  1

  2
none_device
  4
ISO_A4_(297.00_x_210.00_MM)
  6

 40
7.5
 41
20.0
 42
7.5
 43
20.0
 44
297.0
 45
210.0
 46
7.002027027027026
 47
-13.82162162162162
 48
0.0
 49
0.0
140
0.0
141
0.0
142
1.0
143
26.64
 70
   672
 72
     0
 73
     0
 74
     5
  7

 75
    16
 76
     0
 77
     2
 78
   300
147
1.0
148
0.0
149
0.0
100
AcDbLayout
  1
Layout1
 70
     1
 71
     1
 10
-15.21
 20
-6.48
 11
296.2892125984253
 21
213.771968503937
 12
0.0
 22
0.0
 32
0.0
 14
-15.21
 24
-6.48
 34
0.0
 15
296.2892125984253
 25
213.771968503937
 35
0.0
146
0.0
 13
0.0
 23
0.0
 33
0.0
 16
1.0
 26
0.0
 36
0.0
 17
0.0
 27
1.0
 37
0.0
 76
     0
330
1B
331
88
  0
LAYOUT
  5
22
102
{ACAD_REACTORS
330
1A
102
}
330
1A
100
AcDbPlotSettings
  1

  2
none_device
  4
ISO_B5_(182.00_x_237.00_MM)
  6

 40
7.5
 41
20.0
 42
7.5
 43
20.0
 44
182.0
 45
237.0
 46
-7.5
 47
-20.0
 48
0.0
 49
0.0
140
0.0
141
0.0
142
1.0
143
2.197654
 70
  1696
 72
     1
 73
     0
 74
     0
  7

 75
     0
 76
     0
 77
     2
 78
   300
147
0.0003013947743977
148
0.0
149
0.0
100
AcDbLayout
  1
Model
 70
     1
 71
     0
 10
0.0
 20
0.0
 11
399.973028
 21
520.8439979999999
 12
0.0
 22
0.0
 32
0.0
 14
-15.21
 24
-6.48
 34
0.0
 15
296.2892125984253
 25
213.771968503937
 35
0.0
146
0.0
 13
0.0
 23
0.0
 33
0.0
 16
1.0
 26
0.0
 36
0.0
 17
0.0
 27
1.0
 37
0.0
 76
     0
330
1F
331
29
  0
MLINESTYLE
  5
18
102
{ACAD_REACTORS
330
17
102
}
330
17
100
AcDbMlineStyle
  2
Standard
 70
     0
  3

 62
   256
 51
90.0
 52
90.0
 71
    16
 49
0.5
 62
   256
  6
BYLAYER
 49
-0.5
 62
   256
  6
BYLAYER
 49
0.5
 62
   256
  6
BYLAYER
 49
-0.5
 62
   256
  6
BYLAYER
 49
0.5
 62
   256
  6
BYLAYER
 49
-0.5
 62
   256
  6
BYLAYER
 49
0.5
 62
   256
  6
BYLAYER
 49
-0.5
 62
   256
  6
BYLAYER
 49
0.5
 62
   256
  6
BYLAYER
 49
-0.5
 62
   256
  6
BYLAYER
 49
0.5
 62
   256
  6
BYLAYER
 49
-0.5
 62
   256
  6
BYLAYER
 49
0.5
 62
   256
  6
BYLAYER
 49
-0.5
 62
   256
  6
BYLAYER
 49
0.5
 62
   256
  6
BYLAYER
 49
-0.5
 62
   256
  6
BYLAYER
  0
ACDBPLACEHOLDER
  5
F
102
{ACAD_REACTORS
330
E
102
}
330
E
  0
SCALE
  5
3C
102
{ACAD_REACTORS
330
3B
102
}
330
3B
100
AcDbScale
 70
     0
300
1:1
140
1.0
141
1.0
290
     1
  0
SCALE
  5
3D
102
{ACAD_REACTORS
330
3B
102
}
330
3B
100
AcDbScale
 70
     0
300
1:2
140
1.0
141
2.0
290
     0
  0
SCALE
  5
3E
102
{ACAD_REACTORS
330
3B
102
}
330
3B
100
AcDbScale
 70
     0
300
1:4
140
1.0
141
4.0
290
     0
  0
SCALE
  5
3F
102
{ACAD_REACTORS
330
3B
102
}
330
3B
100
AcDbScale
 70
     0
300
1:5
140
1.0
141
5.0
290
     0
  0
SCALE
  5
40
102
{ACAD_REACTORS
330
3B
102
}
330
3B
100
AcDbScale
 70
     0
300
1:8
140
1.0
141
8.0
290
     0
  0
SCALE
  5
41
102
{ACAD_REACTORS
330
3B
102
}
330
3B
100
AcDbScale
 70
     0
300
1:10
140
1.0
141
10.0
290
     0
  0
SCALE
  5
42
102
{ACAD_REACTORS
330
3B
102
}
330
3B
100
AcDbScale
 70
     0
300
1:16
140
1.0
141
16.0
290
     0
  0
SCALE
  5
43
102
{ACAD_REACTORS
330
3B
102
}
330
3B
100
AcDbScale
 70
     0
300
1:20
140
1.0
141
20.0
290
     0
  0
SCALE
  5
44
102
{ACAD_REACTORS
330
3B
102
}
330
3B
100
AcDbScale
 70
     0
300
1:30
140
1.0
141
30.0
290
     0
  0
SCALE
  5
45
102
{ACAD_REACTORS
330
3B
102
}
330
3B
100
AcDbScale
 70
     0
300
1:40
140
1.0
141
40.0
290
     0
  0
SCALE
  5
46
102
{ACAD_REACTORS
330
3B
102
}
330
3B
100
AcDbScale
 70
     0
300
1:50
140
1.0
141
50.0
290
     0
  0
SCALE
  5
47
102
{ACAD_REACTORS
330
3B
102
}
330
3B
100
AcDbScale
 70
     0
300
1:100
140
1.0
141
100.0
290
     0
  0
SCALE
  5
48
102
{ACAD_REACTORS
330
3B
102
}
330
3B
100
AcDbScale
 70
     0
300
2:1
140
2.0
141
1.0
290
     0
  0
SCALE
  5
49
102
{ACAD_REACTORS
330
3B
102
}
330
3B
100
AcDbScale
 70
     0
300
4:1
140
4.0
141
1.0
290
     0
  0
SCALE
  5
4A
102
{ACAD_REACTORS
330
3B
102
}
330
3B
100
AcDbScale
 70
     0
300
8:1
140
8.0
141
1.0
290
     0
  0
SCALE
  5
4B
102
{ACAD_REACTORS
330
3B
102
}
330
3B
100
AcDbScale
 70
     0
300
10:1
140
10.0
141
1.0
290
     0
  0
SCALE
  5
4C
102
{ACAD_REACTORS
330
3B
102
}
330
3B
100
AcDbScale
 70
     0
300
100:1
140
100.0
141
1.0
290
     0
  0
SCALE
  5
4D
102
{ACAD_REACTORS
330
3B
102
}
330
3B
100
AcDbScale
 70
     0
300
1/128" = 1'-0"
140
0.0078125
141
12.0
290
     0
  0
SCALE
  5
4E
102
{ACAD_REACTORS
330
3B
102
}
330
3B
100
AcDbScale
 70
     0
300
1/64" = 1'-0"
140
0.015625
141
12.0
290
     0
  0
SCALE
  5
4F
102
{ACAD_REACTORS
330
3B
102
}
330
3B
100
AcDbScale
 70
     0
300
1/32" = 1'-0"
140
0.03125
141
12.0
290
     0
  0
SCALE
  5
50
102
{ACAD_REACTORS
330
3B
102
}
330
3B
100
AcDbScale
 70
     0
300
1/16" = 1'-0"
140
0.0625
141
12.0
290
     0
  0
SCALE
  5
51
102
{ACAD_REACTORS
330
3B
102
}
330
3B
100
AcDbScale
 70
     0
300
3/32" = 1'-0"
140
0.09375
141
12.0
290
     0
  0
SCALE
  5
52
102
{ACAD_REACTORS
330
3B
102
}
330
3B
100
AcDbScale
 70
     0
300
1/8" = 1'-0"
140
0.125
141
12.0
290
     0
  0
SCALE
  5
53
102
{ACAD_REACTORS
330
3B
102
}
330
3B
100
AcDbScale
 70
     0
300
3/16" = 1'-0"
140
0.1875
141
12.0
290
     0
  0
SCALE
  5
54
102
{ACAD_REACTORS
330
3B
102
}
330
3B
100
AcDbScale
 70
     0
300
1/4" = 1'-0"
140
0.25
141
12.0
290
     0
  0
SCALE
  5
55
102
{ACAD_REACTORS
330
3B
102
}
330
3B
100
AcDbScale
 70
     0
300
3/8" = 1'-0"
140
0.375
141
12.0
290
     0
  0
SCALE
  5
56
102
{ACAD_REACTORS
330
3B
102
}
330
3B
100
AcDbScale
 70
     0
300
1/2" = 1'-0"
140
0.5
141
12.0
290
     0
  0
SCALE
  5
57
102
{ACAD_REACTORS
330
3B
102
}
330
3B
100
AcDbScale
 70
     0
300
3/4" = 1'-0"
140
0.75
141
12.0
290
     0
  0
SCALE
  5
58
102
{ACAD_REACTORS
330
3B
102
}
330
3B
100
AcDbScale
 70
     0
300
1" = 1'-0"
140
1.0
141
12.0
290
     0
  0
SCALE
  5
59
102
{ACAD_REACTORS
330
3B
102
}
330
3B
100
AcDbScale
 70
     0
300
1-1/2" = 1'-0"
140
1.5
141
12.0
290
     0
  0
SCALE
  5
5A
102
{ACAD_REACTORS
330
3B
102
}
330
3B
100
AcDbScale
 70
     0
300
3" = 1'-0"
140
3.0
141
12.0
290
     0
  0
SCALE
  5
5B
102
{ACAD_REACTORS
330
3B
102
}
330
3B
100
AcDbScale
 70
     0
300
6" = 1'-0"
140
6.0
141
12.0
290
     0
  0
SCALE
  5
5C
102
{ACAD_REACTORS
330
3B
102
}
330
3B
100
AcDbScale
 70
     0
300
1'-0" = 1'-0"
140
12.0
141
12.0
290
     0
  0
TABLESTYLE
  5
87
102
{ACAD_REACTORS
330
86
102
}
330
86
100
AcDbTableStyle
  3

 70
     0
 71
     0
 40
0.0533136482939632
 41
0.0533136482939632
280
     0
281
     0
  7
Standard
140
0.1599409448818897
170
     5
 62
     0
 63
     7
421
 16383999
283
     0
 90
      512
 91
        0
  1

274
    -2
284
     1
 64
     0
275
    -2
285
     1
 65
     0
276
    -2
286
     1
 66
     0
277
    -2
287
     1
 67
     0
278
    -2
288
     1
 68
     0
279
    -2
289
     1
 69
     0
  7
Standard
140
0.1599409448818897
170
     5
 62
     0
 63
     7
421
 16383999
283
     0
 90
      512
 91
        0
  1

274
    -2
284
     1
 64
     0
275
    -2
285
     1
 65
     0
276
    -2
286
     1
 66
     0
277
    -2
287
     1
 67
     0
278
    -2
288
     1
 68
     0
279
    -2
289
     1
 69
     0
  7
Standard
140
0.1599409448818897
170
     5
 62
     0
 63
     7
421
 16383999
283
     0
 90
      512
 91
        0
  1

274
    -2
284
     1
 64
     0
275
    -2
285
     1
 65
     0
276
    -2
286
     1
 66
     0
277
    -2
287
     1
 67
     0
278
    -2
288
     1
 68
     0
279
    -2
289
     1
 69
     0
  0
VISUALSTYLE
  5
2F
102
{ACAD_REACTORS
330
2A
102
}
330
2A
100
AcDbVisualStyle
  2
2dWireframe
 70
     4
 71
     0
 72
     2
 73
     0
 90
        0
 40
-0.6
 41
-30.0
 62
     5
 63
     7
421
 16777215
 74
     1
 91
        4
 64
     7
 65
   257
 75
     1
175
     1
 42
1.0
 92
        0
 66
   257
 43
1.0
 76
     1
 77
     6
 78
     2
 67
     7
 79
     5
170
     0
171
     0
290
     0
174
     0
 93
        1
 44
0.0
173
     0
291
     0
 45
0.0
  0
VISUALSTYLE
  5
31
102
{ACAD_REACTORS
330
2A
102
}
330
2A
100
AcDbVisualStyle
  2
3D Hidden
 70
     6
 71
     1
 72
     2
 73
     2
 90
        0
 40
-0.6
 41
-30.0
 62
     5
 63
     7
421
 16777215
 74
     2
 91
        2
 64
     7
 65
   257
 75
     2
175
     1
 42
40.0
 92
        0
 66
   257
 43
1.0
 76
     1
 77
     6
 78
     2
 67
     7
 79
     3
170
     0
171
     0
290
     0
174
     0
 93
        1
 44
0.0
173
     0
291
     0
 45
0.0
  0
VISUALSTYLE
  5
30
102
{ACAD_REACTORS
330
2A
102
}
330
2A
100
AcDbVisualStyle
  2
3dWireframe
 70
     5
 71
     0
 72
     2
 73
     0
 90
        0
 40
-0.6
 41
-30.0
 62
     5
 63
     7
421
 16777215
 74
     1
 91
        4
 64
     7
 65
   257
 75
     1
175
     1
 42
1.0
 92
        0
 66
   257
 43
1.0
 76
     1
 77
     6
 78
     2
 67
     7
 79
     5
170
     0
171
     0
290
     0
174
     0
 93
        1
 44
0.0
173
     0
291
     0
 45
0.0
  0
VISUALSTYLE
  5
32
102
{ACAD_REACTORS
330
2A
102
}
330
2A
100
AcDbVisualStyle
  2
Basic
 70
     7
 71
     1
 72
     0
 73
     1
 90
        0
 40
-0.6
 41
-30.0
 62
     5
 63
     7
421
 16777215
 74
     0
 91
        4
 64
     7
 65
   257
 75
     1
175
     1
 42
1.0
 92
        8
 66
     7
 43
1.0
 76
     1
 77
     6
 78
     2
 67
     7
 79
     5
170
     0
171
     0
290
     0
174
     0
 93
        1
 44
0.0
173
     0
291
     1
 45
0.0
  0
VISUALSTYLE
  5
36
102
{ACAD_REACTORS
330
2A
102
}
330
2A
100
AcDbVisualStyle
  2
Brighten
 70
    12
 71
     2
 72
     2
 73
     0
 90
        0
 40
-0.6
 41
-30.0
 62
     5
 63
     7
421
 16777215
 74
     1
 91
        4
 64
     7
 65
   257
 75
     1
175
     1
 42
1.0
 92
        8
 66
     7
 43
1.0
 76
     1
 77
     6
 78
     2
 67
     7
 79
     5
170
     0
171
     0
290
     0
174
     0
 93
        1
 44
50.0
173
     0
291
     1
 45
0.0
  0
VISUALSTYLE
  5
3A
102
{ACAD_REACTORS
330
2A
102
}
330
2A
100
AcDbVisualStyle
  2
ColorChange
 70
    16
 71
     2
 72
     2
 73
     3
 90
        0
 40
-0.6
 41
-30.0
 62
     5
 63
     8
421
  8421504
 74
     1
 91
        4
 64
     7
 65
   257
 75
     1
175
     1
 42
1.0
 92
        8
 66
     8
424
  8421504
 43
1.0
 76
     1
 77
     6
 78
     2
 67
     7
 79
     5
170
     0
171
     0
290
     0
174
     0
 93
        1
 44
0.0
173
     0
291
     1
 45
0.0
  0
VISUALSTYLE
  5
34
102
{ACAD_REACTORS
330
2A
102
}
330
2A
100
AcDbVisualStyle
  2
Conceptual
 70
     9
 71
     3
 72
     2
 73
     0
 90
        0
 40
-0.6
 41
-30.0
 62
     5
 63
     7
421
 16777215
 74
     2
 91
        2
 64
     7
 65
   257
 75
     1
175
     1
 42
40.0
 92
        8
 66
     7
 43
1.0
 76
     1
 77
     6
 78
     2
 67
     7
 79
     3
170
     0
171
     0
290
     0
174
     0
 93
        1
 44
0.0
173
     0
291
     0
 45
0.0
  0
VISUALSTYLE
  5
35
102
{ACAD_REACTORS
330
2A
102
}
330
2A
100
AcDbVisualStyle
  2
Dim
 70
    11
 71
     2
 72
     2
 73
     0
 90
        0
 40
-0.6
 41
-30.0
 62
     5
 63
     7
421
 16777215
 74
     1
 91
        4
 64
     7
 65
   257
 75
     1
175
     1
 42
1.0
 92
        8
 66
     7
 43
1.0
 76
     1
 77
     6
 78
     2
 67
     7
 79
     5
170
     0
171
     0
290
     0
174
     0
 93
        1
 44
-50.0
173
     0
291
     1
 45
0.0
  0
VISUALSTYLE
  5
39
102
{ACAD_REACTORS
330
2A
102
}
330
2A
100
AcDbVisualStyle
  2
Facepattern
 70
    15
 71
     2
 72
     2
 73
     0
 90
        0
 40
-0.6
 41
-30.0
 62
     5
 63
     7
421
 16777215
 74
     1
 91
        4
 64
     7
 65
   257
 75
     1
175
     1
 42
1.0
 92
        8
 66
     7
 43
1.0
 76
     1
 77
     6
 78
     2
 67
     7
 79
     5
170
     0
171
     0
290
     0
174
     0
 93
        1
 44
0.0
173
     0
291
     1
 45
0.0
  0
VISUALSTYLE
  5
2B
102
{ACAD_REACTORS
330
2A
102
}
330
2A
100
AcDbVisualStyle
  2
Flat
 70
     0
 71
     2
 72
     1
 73
     1
 90
        2
 40
-0.6
 41
30.0
 62
     5
 63
     7
421
 16777215
 74
     0
 91
        4
 64
     7
 65
   257
 75
     1
175
     1
 42
1.0
 92
        8
 66
     7
 43
1.0
 76
     1
 77
     6
 78
     2
 67
     7
 79
     5
170
     0
171
     0
290
     0
174
     0
 93
       13
 44
0.0
173
     0
291
     1
 45
0.0
  0
VISUALSTYLE
  5
2C
102
{ACAD_REACTORS
330
2A
102
}
330
2A
100
AcDbVisualStyle
  2
FlatWithEdges
 70
     1
 71
     2
 72
     1
 73
     1
 90
        2
 40
-0.6
 41
30.0
 62
     5
 63
     7
421
 16777215
 74
     1
 91
        4
 64
     7
 65
   257
 75
     1
175
     1
 42
1.0
 92
        0
 66
   257
 43
1.0
 76
     1
 77
     6
 78
     2
 67
     7
 79
     5
170
     0
171
     0
290
     0
174
     0
 93
       13
 44
0.0
173
     0
291
     1
 45
0.0
  0
VISUALSTYLE
  5
2D
102
{ACAD_REACTORS
330
2A
102
}
330
2A
100
AcDbVisualStyle
  2
Gouraud
 70
     2
 71
     2
 72
     2
 73
     1
 90
        2
 40
-0.6
 41
30.0
 62
     5
 63
     7
421
 16777215
 74
     0
 91
        4
 64
     7
 65
   257
 75
     1
175
     1
 42
1.0
 92
        0
 66
     7
 43
1.0
 76
     1
 77
     6
 78
     2
 67
     7
 79
     5
170
     0
171
     0
290
     0
174
     0
 93
       13
 44
0.0
173
     0
291
     1
 45
0.0
  0
VISUALSTYLE
  5
2E
102
{ACAD_REACTORS
330
2A
102
}
330
2A
100
AcDbVisualStyle
  2
GouraudWithEdges
 70
     3
 71
     2
 72
     2
 73
     1
 90
        2
 40
-0.6
 41
30.0
 62
     5
 63
     7
421
 16777215
 74
     1
 91
        4
 64
     7
 65
   257
 75
     1
175
     1
 42
1.0
 92
        0
 66
   257
 43
1.0
 76
     1
 77
     6
 78
     2
 67
     7
 79
     5
170
     0
171
     0
290
     0
174
     0
 93
       13
 44
0.0
173
     0
291
     1
 45
0.0
  0
VISUALSTYLE
  5
38
102
{ACAD_REACTORS
330
2A
102
}
330
2A
100
AcDbVisualStyle
  2
Linepattern
 70
    14
 71
     2
 72
     2
 73
     0
 90
        0
 40
-0.6
 41
-30.0
 62
     5
 63
     7
421
 16777215
 74
     1
 91
        4
 64
     7
 65
   257
 75
     7
175
     7
 42
1.0
 92
        8
 66
     7
 43
1.0
 76
     1
 77
     6
 78
     2
 67
     7
 79
     5
170
     0
171
     0
290
     0
174
     0
 93
        1
 44
0.0
173
     0
291
     1
 45
0.0
  0
VISUALSTYLE
  5
33
102
{ACAD_REACTORS
330
2A
102
}
330
2A
100
AcDbVisualStyle
  2
Realistic
 70
     8
 71
     2
 72
     2
 73
     0
 90
        0
 40
-0.6
 41
-30.0
 62
     5
 63
     7
421
 16777215
 74
     1
 91
        0
 64
     7
 65
   257
 75
     1
175
     1
 42
1.0
 92
        8
 66
     8
424
  7895160
 43
1.0
 76
     1
 77
     6
 78
     2
 67
     7
 79
     5
170
     0
171
     0
290
     0
174
     0
 93
       13
 44
0.0
173
     0
291
     0
 45
0.0
  0
VISUALSTYLE
  5
37
102
{ACAD_REACTORS
330
2A
102
}
330
2A
100
AcDbVisualStyle
  2
Thicken
 70
    13
 71
     2
 72
     2
 73
     0
 90
        0
 40
-0.6
 41
-30.0
 62
     5
 63
     7
421
 16777215
 74
     1
 91
        4
 64
     7
 65
   257
 75
     1
175
     1
 42
1.0
 92
       12
 66
     7
 43
1.0
 76
     1
 77
     6
 78
     2
 67
     7
 79
     5
170
     0
171
     0
290
     0
174
     0
 93
        1
 44
0.0
173
     0
291
     1
 45
0.0
  0
ENDSEC
  0
SECTION
  2
THUMBNAILIMAGE
 90
    16364
310
28000000B40000005500000001000800000000000000000000000000000000000000000000000000FFFFFF000000FF0000FFFF0000FF0000FFFF0000FF000000FF00FF000000000080808000C0C0C0000000FF007F7FFF000000A5005252A50000007F003F3F7F0000004C0026264C000000260013132600003FFF007F9FFF
310
000029A5005267A500001F7F003F4F7F0000134C00262F4C000009260013172600007FFF007FBFFF000052A500527CA500003F7F003F5F7F0000264C0026394C0000132600131C260000BFFF007FDFFF00007CA5005291A500005F7F003F6F7F0000394C0026424C00001C26001321260000FFFF007FFFFF0000A5A50052A5
310
A500007F7F003F7F7F00004C4C00264C4C00002626001326260000FFBF007FFFDF0000A57C0052A59100007F5F003F7F6F00004C3900264C420000261C001326210000FF7F007FFFBF0000A5520052A57C00007F3F003F7F5F00004C2600264C39000026130013261C0000FF3F007FFF9F0000A5290052A56700007F1F003F
310
7F4F00004C1300264C2F00002609001326170000FF00007FFF7F0000A5000052A55200007F00003F7F3F00004C0000264C260000260000132613003FFF00009FFF7F0029A5000067A552001F7F00004F7F3F00134C00002F4C260009260000172613007FFF0000BFFF7F0052A500007CA552003F7F00005F7F3F00264C0000
310
394C2600132600001C261300BFFF0000DFFF7F007CA5000091A552005F7F00006F7F3F00394C0000424C26001C26000021261300FFFF0000FFFF7F00A5A50000A5A552007F7F00007F7F3F004C4C00004C4C26002626000026261300FFBF0000FFDF7F00A57C0000A59152007F5F00007F6F3F004C3900004C422600261C00
310
0026211300FF7F0000FFBF7F00A5520000A57C52007F3F00007F5F3F004C2600004C39260026130000261C1300FF3F0000FF9F7F00A5290000A56752007F1F00007F4F3F004C1300004C2F26002609000026171300FF000000FF7F7F00A5000000A55252007F0000007F3F3F004C0000004C2626002600000026131300FF00
310
3F00FF7F9F00A5002900A55267007F001F007F3F4F004C0013004C262F002600090026131700FF007F00FF7FBF00A5005200A5527C007F003F007F3F5F004C0026004C2639002600130026131C00FF00BF00FF7FDF00A5007C00A55291007F005F007F3F6F004C0039004C26420026001C0026132100FF00FF00FF7FFF00A5
310
00A500A552A5007F007F007F3F7F004C004C004C264C002600260026132600BF00FF00DF7FFF007C00A5009152A5005F007F006F3F7F0039004C0042264C001C002600211326007F00FF00BF7FFF005200A5007C52A5003F007F005F3F7F0026004C0039264C00130026001C1326003F00FF009F7FFF002900A5006752A500
310
1F007F004F3F7F0013004C002F264C000900260017132600000000002D2D2D005B5B5B0089898900B7B7B700B3B3B30007070707070707070707070707070707070707070707070707070707070707070707070707070707070707070707070707070707070707070707070707070707070707070707070707070707070707
310
07070707070707070707070707070707070707070707070707070707070707070707070707070707070707070707070707070707070707070707070707070707070707070707070707070707070707070707070707070707070707070707070707070707070707070707070707070707070707070707070707070707070707
310
07070707070707070707070707070707070707070707070707070707070707070707070707070707070707070707070707070707070707070707070707070707070707070707070707070707070707070707070707070707070707070707070707070707070707070707070707070707070707070707070707070707070707
310
07070707070707070707070707070707070707070707070707070707070707070707070707070707070707070707070707070707070707070707070707070707070707070707070707070707070707070707070707070707070707070707070707070707070707070707070707070707070707070707070707070707070707
310
07070707070707070707070707070707070707070707070707070707070707070707070707070707070707070707070707070707070707070707070707070707070707070707070707070707070707070707070707070707070707070707070707070707070707070707070707070707070707070707070707070707070707
310
07070707070707070707070707070707070707070707070707070707070707070707070707070707070707070707070707070707070707070707070707070707070707070707070707070707070707070707070707070707070707070707070707070707070707070707070707070707070707070707070707070707070707
310
07070707070707070707070707070707070707070707070707070707070707070707070707070707070707070707070707070707070707070707070707070707070707070707070707070707070707070707070707070707070707070707070707070707070707070707070707070707070707070707070707070707070707
310
07070707070707070707070707070707070707070707070707070707070707070707070707070707070707070707070707070707070707070707070707070707070707070707070707070707070707070707070707070707070707070707070707070707070707070707070707070707070707070707070707070707070707
310
07070707070707070707070707070707070707070707070707070707070707070707070707070707070707070707070707070707070707070707070707070707070707070707070707070707070707070707070707070707070707070707070707070707070707070707070707070707070707070707070707070707070707
310
07070707070707070707070707070707070707070707070707070707070707070707070707070707070707070707070707070707070707070707070707070707070707070707070707070707070707070707070707070707070707070707070707070707070707070707070707070707070707070707070707070707070707
310
07070707070707070707070707070707070707070707070707070707070707070707070707070707070707070707070707070707070707070707070707070707070707070707070707070707070707070707070707070707070707070707070707070707070707070707070707070707070707070707070707070707070707
310
07070707070707070707070707070707070707070707070707070707070707070707070707070707070707070707070707070707070707070707070707070707070707070707070707070707070707070707070707070707070707070707070707070707070707070707070707070707070707070707070707070707070707
310
07070707070707070707070707070707070707070707070707070707070707070707070707070707070707070707070707070707070707070707070707070707070707070707070707070707070707070707070707070707070707070707070707070707070707070707070707070707070707070707070707070707070707
310
07070707070707070707070707070707070707070707070707070707070707070707070707070707070707070707070707070707070707070707070707070707070707070707070707070707070707070707070707070707070707070707070707070707070707070707070707070707070707070707070707070707070707
310
07070707070707070707070707070707070707070707070707070707070707070707070707070707070707070707070707070707070707070707070707070707070707070707070707070707070707070707070707070707070707070707070707070707070707070707070707070707070707070707070707070707070707
310
07070707070707070707070707070707070707070707070707070707070707070707070707070707070707070707070707070707070707070707070707070707070707070707070707070707070707070707070707070707070707070707070707070707070707070707070707070707070707070707070707070707070707
310
07070707070707070707070707070707070707070707070707070707070707070707070707070707070707070707070707070707070707070707070707070707070707070707070707070707070707070707070707070707070707070707070707070707070707070707070707070707070707070707070707070707070707
310
07070707070707070707070707070707070707070707070707070707070707070707070707070707070707070707070707070707070707070707070707070707070707070707070707070707070707070707070707070707070707070707070707070707070707070707070707070707070707070707070707070707070707
310
07070707070707070707070707070707070707070707070707070707070707070707070707070707070707070707070707070707070707070707070707070707070707070707070707070707070707070707070707070707070707070707070707070707070707070707070707070707070707070707070707070707070707
310
07070707070707070707070707070707070707070707070707070707070707070707070707070707070707070707070707070707070707070707070707070707070707070707070707070707070707070707070707070707070707070707070707070707070707070707070707070707070707070707070707070707070707
310
07070707070707070707070707070707070707070707070707070707070707070707070707070707070707070707070707070707070707070707070707070707070707070707070707070707070707070707070707070707070707070707070707070707070707070707070707070707070707070707070707070707070707
310
07070707070707070707070707070707070707070707070707070707070707070707070707070707070707070707070707070707070707070707070707070707070707070707070707070707070707070707070707070707070707070707070707070707070707070707070707070707070707070707070707070707070707
310
07070707070707070707070707070707070707070707070707070707070707070707070707070707070707070707070707070707070707070707070707070707070707070707070707070707070707070707070707070707070707070707070707070707070707070707070707070707070707070707070707070707070707
310
07070707070707070707070707070707070707070707070707070707070707070707070707070707070707070707070707070707070707070707070707070707070707070707070707070707070707070707070707070707070707070707070707070707070707070707070707070707070707070707070707070707070707
310
07070707070707070707070707070707070707070707070707070707070707070707070707070707070707070707070707070707070707070707070707070707070707070707070707070707070707070707070707070707070707070707070707070707070707070707070707070707070707070707070707070707070707
310
07070707070707070707070707070707070707070707070707070707070707070707070707070707070707070707070707070707070707070707070707070707070707070707070707070707070707070707070707070707070707070707070707070707070707070707070707070707070707070707070707070707070707
310
07070707070707070707070707070707070707070707070707070707070707070707070707070707070707070707070707070707070707070707070707070707070707070707070707070707070707070707070707070707070707070707070707070707070707070707070707070707070707070707070707070707070707
310
07070707070707070707070707070707070707070707070707070707070707070707070707070707070707070707070707070707070707070707070707070707070707070707070707070707070707070707070707070707070707070707070707070707070707070707070707070707070707070707070707070707070707
310
07070707070707070707070707070707070707070707070707070707070707070707070707070707070707070707070707070707070707070707070707070707070707070707070707070707070707070707070707070707070707070707070707070707070707070707070707070707070707070707070707070707070707
310
07070707070707070707070707070707070707070707070707070707070707070707070707070707070707070707070707070707070707070707070707070707070707070707070707070707070707070707070707070707070707070707070707070707070707070707070707070707070707070707070707070707070707
310
07070707070707070707070707070707070707070707070707070707070707070707070707070707070707070707070707070707070707070707070707070707070707070707070707070707070707070707070707070707070707070707070707070707070707070707070707070707070707070707070707070707070707
310
07070707070707070707070707070707070707070707070707070707070707070707070707070707070707070707070707070707070707070707070707070707070707070707070707070707070707070707070707070707070707070707070707070707070707070707070707070707070707070707070707070707070707
310
07070707070707070707070707070707070707070707070707070707070707070707070707070707070707070707070707070707070707070707070707070707070707070707070707070707070707070707070707070707070707070707070707070707070707070707070707070707070707070707070707070707070707
310
07070707070707070707070707070707070707070707070707070707070707070707070707070707070707070707070707070707070707070707070707070707070707070707070707070707070707070707070707070707070707070707070707070707070707070707070707070707070707070707070707070707070707
310
07070707070707070707070707070707070707070707070707070707070707070707070707070707070707070707070707070707070707070707070707070707070707070707070707070707070707070707070707070707070707070707070707070707070707070707070707070707070707070707070707070707070707
310
07070707070707070707070707070707070707070707070707070707070707070707070707070707070707070707070707070707070707070707070707070707070707070707070707070707070707070707070707070707070707070707070707070707070707070707070707070707070707070707070707070707070707
310
07070707070707070707070707070707070707070707070707070707070707070707070707070707070707070707070707070707070707070707070707070707070707070707070707070707070707070707070707070707070707070707070707070707070707070707070707070707070707070707070707070707070707
310
07070707070707070707070707070707070707070707070707070707070707070707070707070707070707070707070707070707070707070707070707070707070707070707070707070707070707070707070707070707070707070707070707070707070707070707070707070707070707070707070707070707070707
310
07070707070707070707070707070707070707070707070707070707070707070707070707070707070707070707070707070707070707070707070707070707070707070707070707070707070707070707070707070707070707070707070707070707070707070707070707070707070707070707070707070707070707
310
07070707070707070707070707070707070707070707070707070707070707070707070707070707070707070707070707070707070707070707070707070707070707070707070707070707070707070707070707070707070707070707070707070707070707070707070707070707070707070707070707070707070707
310
07070707070707070707070707070707070707070707070707070707070707070707070707070707070707070707070707070707070707070707070707070707070707070707070707070707070707070707070707070707070707070707070707070707070707070707070707070707070707070707070707070707070707
310
07070707070707070707070707070707070707070707070707070707070707070707070707070707070707070707070707070707070707070707070707070707070707070707070707070707070707070707070707070707070707070707070707070707070707070707070707070707070707070707070707070707070707
310
07070707070707070707070707070707070707070707070707070707070707070707070707070707070707070707070707070707070707070707070707070707070707070707070707070707070707070707070707070707070707070707070707070707070707070707070707070707070707070707070707070707070707
310
07070707070707070707070707070707070707070707070707070707070707070707070707070707070707070707070707070707070707070707070707070707070707070707070707070707070707070707070707070707070707070707070707070707070707070707070707070707070707070707070707070707070707
310
07070707070707070707070707070707070707070707070707070707070707070707070707070707070707070707070707070707070707070707070707070707070707070707070707070707070707070707070707070707070707070707070707070707070707070707070707070707070707070707070707070707070707
310
07070707070707070707070707070707070707070707070707070707070707070707070707070707070707070707070707070707070707070707070707070707070707070707070707070707070707070707070707070707070707070707070707070707070707070707070707070707070707070707070707070707070707
310
07070707070707070707070707070707070707070707070707070707070707070707070707070707070707070707070707070707070707070707070707070707070707070707070707070707070707070707070707070707070707070707070707070707070707070707070707070707070707070707070707070707070707
310
07070707070707070707070707070707070707070707070707070707070707070707070707070707070707070707070707070707070707070707070707070707070707070707070707070707070707070707070707070707070707070707070707070707070707070707070707070707070707070707070707070707070707
310
07070707070707070707070707070707070707070707070707070707070707070707070707070707070707070707070707070707070707070707070707070707070707070707070707070707070707070707070707070707070707070707070707070707070707070707070707070707070707070707070707070707070707
310
07070707070707070707070707070707070707070707070707070707070707070707070707070707070707070707070707070707070707070707070707070707070707070707070707070707070707070707070707070707070707070707070707070707070707070707070707070707070707070707070707070707070707
310
07070707070707070707070707070707070707070707070707070707070707070707070707070707070707070707070707070707070707070707070707070707070707070707070707070707070707070707070707070707070707070707070707070707070707070707070707070707070707070707070707070707070707
310
07070707070707070707070707070707070707070707070707070707070707070707070707070707070707070707070707070707070707070707070707070707070707070707070707070707070707070707070707070707070707070707070707070707070707070707070707070707070707070707070707070707070707
310
07070707070707070707070707070707070707070707070707070707070707070707070707070707070707070707070707070707070707070707070707070707070707070707070707070707070707070707070707070707070707070707070707070707070707070707070707070707070707070707070707070707070707
310
07070707070707070707070707070707070707070707070707070707070707070707070707070707070707070707070707070707070707070707070707070707070707070707070707070707070707070707070707070707070707070707070707070707070707070707070707070707070707070707070707070707070707
310
07070707070707070707070707070707070707070707070707070707070707070707070707070707070707070707070707070707070707070707070707070707070707070707070707070707070707070707070707070707070707070707070707070707070707070707070707070707070707070707070707070707070707
310
07070707070707070707070707070707070707070707070707070707070707070707070707070707070707070707070707070707070707070707070707070707070707070707070707070707070707070707070707070707070707070707070707070707070707070707070707070707070707070707070707070707070707
310
07070707070707070707070707070707070707070707070707070707070707070707070707070707070707070707070707070707070707070707070707070707070707070707070707070707070707070707070707070707070707070707070707070707070707070707070707070707070707070707070707070707070707
310
07070707070707070707070707070707070707070707070707070707070707070707070707070707070707070707070707070707070707070707070707070707070707070707070707070707070707070707070707070707070707070707070707070707070707070707070707070707070707070707070707070707070707
310
07070707070707070707070707070707070707070707070707070707070707070707070707070707070707070707070707070707070707070707070707070707070707070707070707070707070707070707070707070707070707070707070707070707070707070707070707070707070707070707070707070707070707
310
07070707070707070707070707070707070707070707070707070707070707070707070707070707070707070707070707070707070707070707070707070707070707070707070707070707070707070707070707070707070707070707070707070707070707070707070707070707070707070707070707070707070707
310
07070707070707070707070707070707070707070707070707070707070707070707070707070707070707070707070707070707070707070707070707070707070707070707070707070707070707070707070707070707070707070707070707070707070707070707070707070707070707070707070707070707070707
310
07070707070707070707070707070707070707070707070707070707070707070707070707070707070707070707070707070707070707070707070707070707070707070707070707070707070707070707070707070707070707070707070707070707070707070707070707070707070707070707070707070707070707
310
07070707070707070707070707070707070707070707070707070707070707070707070707070707070707070707070707070707070707070707070707070707070707070707070707070707070707070707070707070707070707070707070707070707070707070707070707070707070707070707070707070707070707
310
07070707070707070707070707070707070707070707070707070707070707070707070707070707070707070707070707070707070707070707070707070707070707070707070707070707070707070707070707070707070707070707070707070707070707070707070707070707070707070707070707070707070707
310
07070707070707070707070707070707070707070707070707070707070707070707070707070707070707070707070707070707070707070707070707070707070707070707070707070707070707070707070707070707070707070707070707070707070707070707070707070707070707070707070707070707070707
310
07070707070707070707070707070707070707070707070707070707070707070707070707070707070707070707070707070707070707070707070707070707070707070707070707070707070707070707070707070707070707070707070707070707070707070707070707070707070707070707070707070707070707
310
07070707070707070707070707070707070707070707070707070707070707070707070707070707070707070707070707070707070707070707070707070707070707070707070707070707070707070707070707070707070707070707070707070707070707070707070707070707070707070707070707070707070707
310
07070707070707070707070707070707070707070707070707070707070707070707070707070707070707070707070707070707070707070707070707070707070707070707070707070707070707070707070707070707070707070707070707070707070707070707070707070707070707070707070707070707070707
310
07070707070707070707070707070707070707070707070707070707070707070707070707070707070707070707070707070707070707070707070707070707070707070707070707070707070707070707070707070707070707070707070707070707070707070707070707070707070707070707070707070707070707
310
07070707070707070707070707070707070707070707070707070707070707070707070707070707070707070707070707070707070707070707070707070707070707070707070707070707070707070707070707070707070707070707070707070707070707070707070707070707070707070707070707070707070707
310
07070707070707070707070707070707070707070707070707070707070707070707070707070707070707070707070707070707070707070707070707070707070707070707070707070707070707070707070707070707070707070707070707070707070707070707070707070707070707070707070707070707070707
310
07070707070707070707070707070707070707070707070707070707070707070707070707070707070707070707070707070707070707070707070707070707070707070707070707070707070707070707070707070707070707070707070707070707070707070707070707070707070707070707070707070707070707
310
07070707070707070707070707070707070707070707070707070707070707070707070707070707070707070707070707070707070707070707070707070707070707070707070707070707070707070707070707070707070707070707070707070707070707070707070707070707070707070707070707070707070707
310
07070707070707070707070707070707070707070707070707070707070707070707070707070707070707070707070707070707070707070707070707070707070707070707070707070707070707070707070707070707070707070707070707070707070707070707070707070707070707070707070707070707070707
310
07070707070707070707070707070707070707070707070707070707070707070707070707070707070707070707070707070707070707070707070707070707070707070707070707070707070707070707070707070707070707070707070707070707070707070707070707070707070707070707070707070707070707
310
07070707070707070707070707070707070707070707070707070707070707070707070707070707070707070707070707070707070707070707070707070707070707070707070707070707070707070707070707070707070707070707070707070707070707070707070707070707070707070707070707070707070707
310
07070707070707070707070707070707070707070707070707070707070707070707070707070707070707070707070707070707070707070707070707070707070707070707070707070707070707070707070707070707070707070707070707070707070707070707070707070707070707070707070707070707070707
310
07070707070707070707070707070707070707070707070707070707070707070707070707070707070707070707070707070707070707070707070707070707070707070707070707070707070707070707070707070707070707070707070707070707070707070707070707070707070707070707070707070707070707
310
07070707070707070707070707070707070707070707070707070707070707070707070707070707070707070707070707070707070707070707070707070707070707070707070707070707070707070707070707070707070707070707070707070707070707070707070707070707070707070707070707070707070707
310
07070707070707070707070707070707070707070707070707070707070707070707070707070707070707070707070707070707070707070707070707070707070707070707070707070707070707070707070707070707070707070707070707070707070707070707070707070707070707070707070707070707070707
310
07070707070707070707070707070707070707070707070707070707070707070707070707070707070707070707070707070707070707070707070707070707070707070707070707070707070707070707070707070707070707070707070707070707070707070707070707070707070707070707070707070707070707
310
07070707070707070707070707070707070707070707070707070707070707070707070707070707070707070707070707070707070707070707070707070707070707070707070707070707070707070707070707070707070707070707070707070707070707070707070707070707070707070707070707070707070707
310
07070707070707070707070707070707070707070707070707070707070707070707070707070707070707070707070707070707070707070707070707070707070707070707070707070707070707070707070707070707070707070707070707070707070707070707070707070707070707070707070707070707070707
310
07070707070707070707070707070707070707070707070707070707070707070707070707070707070707070707070707070707070707070707070707070707070707070707070707070707070707070707070707070707070707070707070707070707070707070707070707070707070707070707070707070707070707
310
07070707070707070707070707070707070707070707070707070707070707070707070707070707070707070707070707070707070707070707070707070707070707070707070707070707070707070707070707070707070707070707070707070707070707070707070707070707070707070707070707070707070707
310
07070707070707070707070707070707070707070707070707070707070707070707070707070707070707070707070707070707070707070707070707070707070707070707070707070707070707070707070707070707070707070707070707070707070707070707070707070707070707070707070707070707070707
310
07070707070707070707070707070707070707070707070707070707070707070707070707070707070707070707070707070707070707070707070707070707070707070707070707070707070707070707070707070707070707070707070707070707070707070707070707070707070707070707070707070707070707
310
07070707070707070707070707070707070707070707070707070707070707070707070707070707070707070707070707070707070707070707070707070707070707070707070707070707070707070707070707070707070707070707070707070707070707070707070707070707070707070707070707070707070707
310
07070707070707070707070707070707070707070707070707070707070707070707070707070707070707070707070707070707070707070707070707070707070707070707070707070707070707070707070707070707070707070707070707070707070707070707070707070707070707070707070707070707070707
310
07070707070707070707070707070707070707070707070707070707070707070707070707070707070707070707070707070707070707070707070707070707070707070707070707070707070707070707070707070707070707070707070707070707070707070707070707070707070707070707070707070707070707
310
07070707070707070707070707070707070707070707070707070707070707070707070707070707070707070707070707070707070707070707070707070707070707070707070707070707070707070707070707070707070707070707070707070707070707070707070707070707070707070707070707070707070707
310
07070707070707070707070707070707070707070707070707070707070707070707070707070707070707070707070707070707070707070707070707070707070707070707070707070707070707070707070707070707070707070707070707070707070707070707070707070707070707070707070707070707070707
310
07070707070707070707070707070707070707070707070707070707070707070707070707070707070707070707070707070707070707070707070707070707070707070707070707070707070707070707070707070707070707070707070707070707070707070707070707070707070707070707070707070707070707
310
07070707070707070707070707070707070707070707070707070707070707070707070707070707070707070707070707070707070707070707070707070707070707070707070707070707070707070707070707070707070707070707070707070707070707070707070707070707070707070707070707070707070707
310
07070707070707070707070707070707070707070707070707070707070707070707070707070707070707070707070707070707070707070707070707070707070707070707070707070707070707070707070707070707070707070707070707070707070707070707070707070707070707070707070707070707070707
310
07070707070707070707070707070707070707070707070707070707070707070707070707070707070707070707070707070707070707070707070707070707070707070707070707070707070707070707070707070707070707070707070707070707070707070707070707070707070707070707070707070707070707
310
07070707070707070707070707070707070707070707070707070707070707070707070707070707070707070707070707070707070707070707070707070707070707070707070707070707070707070707070707070707070707070707070707070707070707070707070707070707070707070707070707070707070707
310
07070707070707070707070707070707070707070707070707070707070707070707070707070707070707070707070707070707070707070707070707070707070707070707070707070707070707070707070707070707070707070707070707070707070707070707070707070707070707070707070707070707070707
310
07070707070707070707070707070707070707070707070707070707070707070707070707070707070707070707070707070707070707070707070707070707070707070707070707070707070707070707070707070707070707070707070707070707070707070707070707070707070707070707070707070707070707
310
07070707070707070707070707070707070707070707070707070707070707070707070707070707070707070707070707070707070707070707070707070707070707070707070707070707070707070707070707070707070707070707070707070707070707070707070707070707070707070707070707070707070707
310
07070707070707070707070707070707070707070707070707070707070707070707070707070707070707070707070707070707070707070707070707070707070707070707070707070707070707070707070707070707070707070707070707070707070707070707070707070707070707070707070707070707070707
310
07070707070707070707070707070707070707070707070707070707070707070707070707070707070707070707070707070707070707070707070707070707070707070707070707070707070707070707070707070707070707070707070707070707070707070707070707070707070707070707070707070707070707
310
07070707070707070707070707070707070707070707070707070707070707070707070707070707070707070707070707070707070707070707070707070707070707070707070707070707070707070707070707070707070707070707070707070707070707070707070707070707070707070707070707070707070707
310
07070707070707070707070707070707070707070707070707070707070707070707070707070707070707070707070707070707070707070707070707070707070707070707070707070707070707070707070707070707070707070707070707070707070707070707070707070707070707070707070707070707070707
310
07070707070707070707070707070707070707070707070707070707070707070707070707070707070707070707070707070707070707070707070707070707070707070707070707070707070707070707070707070707070707070707070707070707070707070707070707070707070707070707070707070707070707
310
07070707070707070707070707070707070707070707070707070707070707070707070707070707070707070707070707070707070707070707070707070707070707070707070707070707070707070707070707070707070707070707070707070707070707070707070707070707070707070707070707070707070707
310
07070707070707070707070707070707070707070707070707070707070707070707070707070707070707070707070707070707070707070707070707070707070707070707070707070707070707070707070707070707070707070707070707070707070707070707070707070707070707070707070707070707070707
310
07070707070707070707070707070707070707070707070707070707070707070707070707070707070707070707070707070707070707070707070707070707070707070707070707070707070707070707070707070707070707070707070707070707070707070707070707070707070707070707070707070707070707
310
07070707070707070707070707070707070707070707070707070707070707070707070707070707070707070707070707070707070707070707070707070707070707070707070707070707070707070707070707070707070707070707070707070707070707070707070707070707070707070707070707070707070707
310
07070707070707070707070707070707070707070707070707070707070707070707070707070707070707070707070707070707070707070707070707070707070707070707070707070707070707070707070707070707070707070707070707070707070707070707070707070707070707070707070707070707070707
310
07070707070707070707070707070707070707070707070707070707070707070707070707070707070707070707070707070707070707070707070707070707070707070707070707070707070707070707070707070707070707070707070707070707070707070707070707070707070707070707070707070707070707
310
07070707070707070707070707070707070707070707070707070707070707070707070707070707070707070707070707070707070707070707070707070707070707070707070707070707070707070707070707070707070707070707070707070707070707070707070707070707070707070707070707070707070707
310
07070707070707070707070707070707070707070707070707070707070707070707070707070707070707070707070707070707070707070707070707070707070707070707070707070707070707070707070707070707070707070707070707070707070707070707070707070707070707070707070707070707070707
310
07070707070707070707070707070707070707070707070707070707070707070707070707070707070707070707070707070707070707070707070707070707070707070707070707070707070707070707070707070707070707070707070707070707070707070707070707070707070707070707070707070707070707
310
07070707070707070707070707070707070707070707070707070707070707070707070707070707070707070707070707070707070707070707070707070707070707070707070707070707070707070707070707070707070707070707070707070707070707070707070707070707070707070707070707070707070707
310
07070707070707070707070707070707070707070707070707070707070707070707070707070707070707070707070707070707070707070707070707070707070707070707070707070707070707070707070707070707070707070707070707070707070707070707070707070707070707070707070707070707070707
310
07070707070707070707070707070707070707070707070707070707070707070707070707070707070707070707070707070707070707070707070707070707070707070707070707070707070707070707070707070707070707070707070707070707070707070707070707070707070707070707070707070707070707
310
07070707070707070707070707070707070707070707070707070707070707070707070707070707070707070707070707070707070707070707070707070707070707070707070707070707070707070707070707070707070707070707070707070707070707070707070707070707070707070707070707070707070707
310
07070707070707070707070707070707070707070707070707070707070707070707070707070707070707070707070707070707070707070707070707070707070707070707070707070707070707070707070707070707070707070707070707070707070707070707070707070707070707070707070707070707070707
310
07070707070707070707070707070707070707070707070707070707070707070707070707070707070707070707070707070707070707070707070707070707070707070707070707070707070707070707070707070707070707070707070707070707070707070707070707070707070707070707070707070707070707
310
070707070707070707070707070707070707070707070707070707070707070707070707070707070707070707070707070707070707070707070707070707070707070707070707070707070707070707070707070707070707070707070707070707070707070707070707
  0
ENDSEC
  0
EOF
