  0
SECTION
  2
HEADER
  9
$ACADVER
  1
AC1018
  9
$ACADMAINTVER
 70
     0
  9
$DWGCODEPAGE
  3
ANSI_932
  9
$INSBASE
 10
0.000000
 20
0.000000
 30
0.000000
  9
$EXTMIN
 10
0.000000
 20
0.000000
 30
0.000000
  9
$EXTMAX
 10
190.000000
 20
257.000000
 30
0.000000
  9
$LIMMIN
 10
0.000000
 20
0.000000
  9
$LIMMAX
 10
190.000000
 20
257.000000
  9
$ORTHOMODE
 70
     0
  9
$REGENMODE
 70
     1
  9
$FILLMODE
 70
     1
  9
$QTEXTMODE
 70
     0
  9
$MIRRTEXT
 70
     1
  9
$LTSCALE
 40
1.000000
  9
$ATTMODE
 70
     1
  9
$TEXTSIZE
 40
2.500000
  9
$TRACEWID
 40
1.000000
  9
$TEXTSTYLE
  7
BIGFONT
  9
$CLAYER
  8
0
  9
$CELTYPE
  6
BYLAYER
  9
$CECOLOR
 62
   256
  9
$CELTSCALE
 40
1.000000
  9
$DISPSILH
 70
     0
  9
$DIMSCALE
 40
1.000000
  9
$DIMASZ
 40
2.500000
  9
$DIMEXO
 40
0.625000
  9
$DIMDLI
 40
3.750000
  9
$DIMRND
 40
0.000000
  9
$DIMDLE
 40
0.000000
  9
$DIMEXE
 40
1.250000
  9
$DIMTP
 40
0.000000
  9
$DIMTM
 40
0.000000
  9
$DIMTXT
 40
2.500000
  9
$DIMCEN
 40
2.500000
  9
$DIMTSZ
 40
0.000000
  9
$DIMTOL
 70
     0
  9
$DIMLIM
 70
     0
  9
$DIMTIH
 70
     0
  9
$DIMTOH
 70
     0
  9
$DIMSE1
 70
     0
  9
$DIMSE2
 70
     0
  9
$DIMTAD
 70
     1
  9
$DIMZIN
 70
     8
  9
$DIMBLK
  1

  9
$DIMASO
 70
     1
  9
$DIMSHO
 70
     1
  9
$DIMPOST
  1

  9
$DIMAPOST
  1

  9
$DIMALT
 70
     0
  9
$DIMALTD
 70
     4
  9
$DIMALTF
 40
0.039400
  9
$DIMLFAC
 40
1.000000
  9
$DIMTOFL
 70
     1
  9
$DIMTVP
 40
0.000000
  9
$DIMTIX
 70
     0
  9
$DIMSOXD
 70
     0
  9
$DIMSAH
 70
     0
  9
$DIMBLK1
  1

  9
$DIMBLK2
  1

  9
$DIMSTYLE
  2
STANDARD
  9
$DIMCLRD
 70
     0
  9
$DIMCLRE
 70
     0
  9
$DIMCLRT
 70
     0
  9
$DIMTFAC
 40
1.000000
  9
$DIMGAP
 40
0.625000
  9
$DIMJUST
 70
     0
  9
$DIMSD1
 70
     0
  9
$DIMSD2
 70
     0
  9
$DIMTOLJ
 70
     1
  9
$DIMTZIN
 70
     0
  9
$DIMALTZ
 70
     0
  9
$DIMALTTZ
 70
     0
  9
$DIMUPT
 70
     0
  9
$DIMDEC
 70
     4
  9
$DIMTDEC
 70
     4
  9
$DIMALTU
 70
     8
  9
$DIMALTTD
 70
     4
  9
$DIMTXSTY
  7
STANDARD
  9
$DIMAUNIT
 70
     0
  9
$DIMADEC
 70
     0
  9
$DIMALTRND
 40
0.000000
  9
$DIMAZIN
 70
     0
  9
$DIMDSEP
 70
    46
  9
$DIMATFIT
 70
     3
  9
$DIMFRAC
 70
     0
  9
$DIMLDRBLK
  1

  9
$DIMLUNIT
 70
     2
  9
$DIMLWD
 70
-2
  9
$DIMLWE
 70
-2
  9
$DIMTMOVE
 70
     0
  9
$LUNITS
 70
     2
  9
$LUPREC
 70
     4
  9
$AXISMODE
 70
     0
  9
$SKETCHINC
 40
1.000000
  9
$FILLETRAD
 40
10.000000
  9
$AUNITS
 70
     0
  9
$AUPREC
 70
     0
  9
$MENU
  1
acad
  9
$ELEVATION
 40
0.000000
  9
$PELEVATION
 40
0.000000
  9
$THICKNESS
 40
0.000000
  9
$LIMCHECK
 70
     0
  9
$BLIPMODE
 70
     0
  9
$CHAMFERA
 40
10.000000
  9
$CHAMFERB
 40
10.000000
  9
$CHAMFERC
 40
20.000000
  9
$CHAMFERD
 40
0.000000
  9
$SKPOLY
 70
     0
  9
$TDCREATE
 40
2447851.677998
  9
$TDUCREATE
 40
2447851.677998
  9
$TDUPDATE
 40
2447851.677998
  9
$TDUUPDATE
 40
2447851.677998
  9
$TDINDWG
 40
0.000000
  9
$TDUSRTIMER
 40
0.000000
  9
$USRTIMER
 70
     1
  9
$ANGBASE
 50
0.000000
  9
$ANGDIR
 70
     0
  9
$PDMODE
 70
     0
  9
$PDSIZE
 40
0.000000
  9
$PLINEWID
 40
0.000000
  9
$SPLFRAME
 70
     0
  9
$SPLINETYPE
 70
     6
  9
$SPLINESEGS
 70
     8
  9
$HANDSEED
  5
FFFFFFF
  9
$SURFTAB1
 70
     6
  9
$SURFTAB2
 70
     6
  9
$SURFTYPE
 70
     6
  9
$SURFU
 70
     6
  9
$SURFV
 70
     6
  9
$UCSBASE
  2

  9
$UCSNAME
  2

  9
$UCSORG
 10
0.000000
 20
0.000000
 30
0.000000
  9
$UCSXDIR
 10
1.000000
 20
0.000000
 30
0.000000
  9
$UCSYDIR
 10
0.000000
 20
1.000000
 30
0.000000
  9
$UCSORTHOREF
  2

  9
$UCSORTHOVIEW
 70
     0
  9
$UCSORGTOP
 10
0.000000
 20
0.000000
 30
0.000000
  9
$UCSORGBOTTOM
 10
0.000000
 20
0.000000
 30
0.000000
  9
$UCSORGLEFT
 10
0.000000
 20
0.000000
 30
0.000000
  9
$UCSORGRIGHT
 10
0.000000
 20
0.000000
 30
0.000000
  9
$UCSORGFRONT
 10
0.000000
 20
0.000000
 30
0.000000
  9
$UCSORGBACK
 10
0.000000
 20
0.000000
 30
0.000000
  9
$PUCSBASE
  2

  9
$PUCSNAME
  2

  9
$PUCSORG
 10
0.000000
 20
0.000000
 30
0.000000
  9
$PUCSXDIR
 10
1.000000
 20
0.000000
 30
0.000000
  9
$PUCSYDIR
 10
0.000000
 20
1.000000
 30
0.000000
  9
$PUCSORTHOREF
  2

  9
$PUCSORTHOVIEW
 70
     0
  9
$PUCSORGTOP
 10
0.000000
 20
0.000000
 30
0.000000
  9
$PUCSORGBOTTOM
 10
0.000000
 20
0.000000
 30
0.000000
  9
$PUCSORGLEFT
 10
0.000000
 20
0.000000
 30
0.000000
  9
$PUCSORGRIGHT
 10
0.000000
 20
0.000000
 30
0.000000
  9
$PUCSORGFRONT
 10
0.000000
 20
0.000000
 30
0.000000
  9
$PUCSORGBACK
 10
0.000000
 20
0.000000
 30
0.000000
  9
$USERI1
 70
     0
  9
$USERI2
 70
     0
  9
$USERI3
 70
     0
  9
$USERI4
 70
     0
  9
$USERI5
 70
     0
  9
$USERR1
 40
0.000000
  9
$USERR2
 40
0.000000
  9
$USERR3
 40
0.000000
  9
$USERR4
 40
0.000000
  9
$USERR5
 40
0.000000
  9
$WORLDVIEW
 70
     1
  9
$SHADEDGE
 70
     3
  9
$SHADEDIF
 70
    70
  9
$TILEMODE
 70
     1
  9
$MAXACTVP
 70
    48
  9
$PINSBASE
 10
0.000000
 20
0.000000
 30
0.000000
  9
$PLIMCHECK
 70
     0
  9
$PEXTMIN
 10
100000000000000000000.000000
 20
100000000000000000000.000000
 30
100000000000000000000.000000
  9
$PEXTMAX
 10
-100000000000000000000.000000
 20
-100000000000000000000.000000
 30
-100000000000000000000.000000
  9
$PLIMMIN
 10
0.000000
 20
0.000000
  9
$PLIMMAX
 10
190.000000
 20
257.000000
  9
$UNITMODE
 70
     0
  9
$VISRETAIN
 70
     1
  9
$PLINEGEN
 70
     0
  9
$PSLTSCALE
 70
     1
  9
$TREEDEPTH
 70
  3020
  9
$CMLSTYLE
  2
STANDARD
  9
$CMLJUST
 70
     0
  9
$CMLSCALE
 40
20.000000
  9
$PROXYGRAPHICS
 70
     1
  9
$MEASUREMENT
 70
     1
  9
$CELWEIGHT
370
-1
  9
$ENDCAPS
280
     0
  9
$JOINSTYLE
280
     0
  9
$LWDISPLAY
290
     1
  9
$INSUNITS
 70
     0
  9
$HYPERLINKBASE
  1

  9
$STYLESHEET
  1

  9
$XEDIT
290
     1
  9
$CEPSNTYPE
380
     0
  9
$PSTYLEMODE
290
     1
  9
$FINGERPRINTGUID
  2
{01801163-5BC0-459E-B9C7-2188C09ED432}
  9
$VERSIONGUID
  2
{7F326DDD-95DF-42AD-9861-A0CD9F0961F2}
  9
$EXTNAMES
290
     1
  9
$PSVPSCALE
 40
0.0
  9
$OLESTARTUP
290
     0
  9
$SORTENTS
280
   127
  9
$INDEXCTL
280
     0
  9
$HIDETEXT
280
     1
  9
$XCLIPFRAME
290
     0
  9
$HALOGAP
280
     0
  9
$OBSCOLOR
 70
   257
  9
$OBSLTYPE
280
     0
  9
$INTERSECTIONDISPLAY
280
     0
  9
$INTERSECTIONCOLOR
 70
   257
  9
$DIMASSOC
280
     2
  9
$PROJECTNAME
  1

  0
ENDSEC
  0
SECTION
  2
TABLES
  0
TABLE
  2
VPORT
  5
a2
100
AcDbSymbolTable
 70
     2
  0
VPORT
  5
a5
100
AcDbSymbolTableRecord
100
AcDbViewportTableRecord
  2
*ACTIVE
 70
     0
 10
0.000000
 20
0.000000
 11
1.000000
 21
1.000000
 12
300.000000
 22
200.000000
 13
0.000000
 23
0.000000
 14
10.000000
 24
10.000000
 15
10.000000
 25
10.000000
 16
0.000000
 26
0.000000
 36
1.000000
 17
0.000000
 27
0.000000
 37
0.000000
 40
300.000000
 41
1.600432
 42
50.000000
 43
0.000000
 44
0.000000
 50
0.000000
 51
0.000000
 71
     0
 72
   100
 73
     1
 74
     1
 75
     0
 76
     0
 77
     0
 78
     0
  0
ENDTAB
  0
TABLE
  2
LTYPE
  5
a8
100
AcDbSymbolTable
 70
    11
  0
LTYPE
  5
ab
100
AcDbSymbolTableRecord
100
AcDbLinetypeTableRecord
  2
BYBLOCK
 70
    64
  3
BYBLOCK
 72
    65
 73
     0
 40
0.000000
  0
LTYPE
  5
ae
100
AcDbSymbolTableRecord
100
AcDbLinetypeTableRecord
  2
BYLAYER
 70
    64
  3
BYLAYER
 72
    65
 73
     0
 40
0.000000
  0
LTYPE
  5
b1
100
AcDbSymbolTableRecord
100
AcDbLinetypeTableRecord
  2
CONTINUOUS
 70
    64
  3
実線
 72
    65
 73
     0
 40
0.000000
  0
LTYPE
  5
b4
100
AcDbSymbolTableRecord
100
AcDbLinetypeTableRecord
  2
DASHED
 70
    64
  3
__ __ __ __ __ __ __ __ __ __ __ __ __ __ __
 72
    65
 73
     2
 40
0.750000
 49
0.500000
 74
     0
 49
-0.250000
 74
     0
  0
LTYPE
  5
b7
100
AcDbSymbolTableRecord
100
AcDbLinetypeTableRecord
  2
HIDDEN
 70
    64
  3
_ _ _ _ _ _ _ _ _ _ _ _ _ _ _ _ _ _ _ _ _ _ _
 72
    65
 73
     2
 40
0.375000
 49
0.250000
 74
     0
 49
-0.125000
 74
     0
  0
LTYPE
  5
ba
100
AcDbSymbolTableRecord
100
AcDbLinetypeTableRecord
  2
CENTER
 70
    64
  3
____ _ ____ _ ____ _ ____ _ ____ _ ____ _ ____
 72
    65
 73
     4
 40
2.000000
 49
1.250000
 74
     0
 49
-0.250000
 74
     0
 49
0.250000
 74
     0
 49
-0.250000
 74
     0
  0
LTYPE
  5
bd
100
AcDbSymbolTableRecord
100
AcDbLinetypeTableRecord
  2
PHANTOM
 70
    64
  3
_____ _ _ _____ _ _ _____ _ _ _____ _ _ ____
 72
    65
 73
     6
 40
2.500000
 49
1.250000
 74
     0
 49
-0.250000
 74
     0
 49
0.250000
 74
     0
 49
-0.250000
 74
     0
 49
0.250000
 74
     0
 49
-0.250000
 74
     0
  0
LTYPE
  5
c0
100
AcDbSymbolTableRecord
100
AcDbLinetypeTableRecord
  2
DOT
 70
    64
  3
...............................................
 72
    65
 73
     2
 40
0.250000
 49
0.000000
 74
     0
 49
-0.250000
 74
     0
  0
LTYPE
  5
c3
100
AcDbSymbolTableRecord
100
AcDbLinetypeTableRecord
  2
DASHDOT
 70
    64
  3
__ . __ . __ . __ . __ . __ . __ . __ . __ . __
 72
    65
 73
     4
 40
1.000000
 49
0.500000
 74
     0
 49
-0.250000
 74
     0
 49
0.000000
 74
     0
 49
-0.250000
 74
     0
  0
LTYPE
  5
c6
100
AcDbSymbolTableRecord
100
AcDbLinetypeTableRecord
  2
BORDER
 70
    64
  3
__ __ . __ __ . __ __ . __ __ . __ __ . __ __
 72
    65
 73
     6
 40
1.750000
 49
0.500000
 74
     0
 49
-0.250000
 74
     0
 49
0.500000
 74
     0
 49
-0.250000
 74
     0
 49
0.000000
 74
     0
 49
-0.250000
 74
     0
  0
LTYPE
  5
c9
100
AcDbSymbolTableRecord
100
AcDbLinetypeTableRecord
  2
DIVIDE
 70
    64
  3
__ . . __ . . __ . . __ . . __ . . __ . . __
 72
    65
 73
     6
 40
1.250000
 49
0.500000
 74
     0
 49
-0.250000
 74
     0
 49
0.000000
 74
     0
 49
-0.250000
 74
     0
 49
0.000000
 74
     0
 49
-0.250000
 74
     0
  0
ENDTAB
  0
TABLE
  2
LAYER
  5
cc
100
AcDbSymbolTable
 70
     2
  0
LAYER
  5
cf
100
AcDbSymbolTableRecord
100
AcDbLayerTableRecord
  2
0
 70
     0
 62
     7
  6
CONTINUOUS
370
 65533
390
	F
  0
LAYER
  5
d2
100
AcDbSymbolTableRecord
100
AcDbLayerTableRecord
  2
B
 70
     0
 62
     7
  6
CONTINUOUS
370
 65533
390
	F
  0
LAYER
  5
d5
100
AcDbSymbolTableRecord
100
AcDbLayerTableRecord
  2
C
 70
     0
 62
     7
  6
CONTINUOUS
370
 65533
390
	F
  0
LAYER
  5
d8
100
AcDbSymbolTableRecord
100
AcDbLayerTableRecord
  2
D
 70
     0
 62
     7
  6
CONTINUOUS
370
 65533
390
	F
  0
LAYER
  5
db
100
AcDbSymbolTableRecord
100
AcDbLayerTableRecord
  2
E
 70
     0
 62
     7
  6
CONTINUOUS
370
 65533
390
	F
  0
LAYER
  5
de
100
AcDbSymbolTableRecord
100
AcDbLayerTableRecord
  2
F
 70
     0
 62
     7
  6
CONTINUOUS
370
 65533
390
	F
  0
LAYER
  5
e1
100
AcDbSymbolTableRecord
100
AcDbLayerTableRecord
  2
G
 70
     0
 62
     7
  6
CONTINUOUS
370
 65533
390
	F
  0
LAYER
  5
e4
100
AcDbSymbolTableRecord
100
AcDbLayerTableRecord
  2
H
 70
     0
 62
     7
  6
CONTINUOUS
370
 65533
390
	F
  0
LAYER
  5
e7
100
AcDbSymbolTableRecord
100
AcDbLayerTableRecord
  2
I
 70
     0
 62
     7
  6
CONTINUOUS
370
 65533
390
	F
  0
LAYER
  5
ea
100
AcDbSymbolTableRecord
100
AcDbLayerTableRecord
  2
J
 70
     0
 62
     7
  6
CONTINUOUS
370
 65533
390
	F
  0
LAYER
  5
ed
100
AcDbSymbolTableRecord
100
AcDbLayerTableRecord
  2
K
 70
     0
 62
     7
  6
CONTINUOUS
370
 65533
390
	F
  0
LAYER
  5
f0
100
AcDbSymbolTableRecord
100
AcDbLayerTableRecord
  2
L
 70
     0
 62
     7
  6
CONTINUOUS
370
 65533
390
	F
  0
LAYER
  5
f3
100
AcDbSymbolTableRecord
100
AcDbLayerTableRecord
  2
M
 70
     0
 62
     7
  6
CONTINUOUS
370
 65533
390
	F
  0
LAYER
  5
f6
100
AcDbSymbolTableRecord
100
AcDbLayerTableRecord
  2
N
 70
     0
 62
     7
  6
CONTINUOUS
370
 65533
390
	F
  0
ENDTAB
  0
TABLE
  2
STYLE
  5
f9
100
AcDbSymbolTable
 70
     2
  0
STYLE
  5
fc
100
AcDbSymbolTableRecord
100
AcDbTextStyleTableRecord
  2
STANDARD
 70
     0
 40
0.000000
 41
0.500000
 50
0.000000
 71
     0
 42
0.300000
  3
txt
  4

  0
STYLE
  5
ff
100
AcDbSymbolTableRecord
100
AcDbTextStyleTableRecord
  2
BIGFONT
 70
    64
 40
0.000000
 41
1.000000
 50
0.000000
 71
     0
 42
0.200000
  3

  4
bigfont
  0
ENDTAB
  0
TABLE
  2
VIEW
  5
102
100
AcDbSymbolTable
 70
     0
  0
ENDTAB
  0
TABLE
  2
UCS
  5
105
100
AcDbSymbolTable
 70
     0
  0
ENDTAB
  0
TABLE
  2
APPID
  5
108
100
AcDbSymbolTable
 70
     3
  0
APPID
  5
10b
100
AcDbSymbolTableRecord
100
AcDbRegAppTableRecord
  2
ACAD
 70
     0
  0
APPID
  5
10e
100
AcDbSymbolTableRecord
100
AcDbRegAppTableRecord
  2
CONTENTTABDATA
 70
     0
  0
APPID
  5
111
100
AcDbSymbolTableRecord
100
AcDbRegAppTableRecord
  2
CONTENTCURRENTTAB
 70
     0
  0
ENDTAB
  0
TABLE
  2
DIMSTYLE
  5
114
330
     0
100
AcDbSymbolTable
 70
     2
100
AcDbDimStyleTable
 70
     1
  0
DIMSTYLE
105
117
100
AcDbSymbolTableRecord
100
AcDbDimStyleTableRecord
  2
STANDARD
 70
     0
  3

  4

  5

  6

  7

 40
1.000000
 41
0.180000
 42
0.062500
 43
0.380000
 44
0.180000
 45
0.000000
 46
0.000000
 47
0.000000
 48
0.000000
140
0.180000
141
0.090000
142
0.000000
143
25.400000
144
1.000000
145
0.000000
146
1.000000
147
0.090000
 71
     0
 72
     0
 73
     1
 74
     1
 75
     0
 76
     0
 77
     0
 78
     0
170
     0
171
     2
172
     0
173
     0
174
     0
175
     0
176
     0
177
     0
178
     0
270
     2
271
     4
272
     4
273
     2
274
     2
340
fc
275
     0
280
     0
281
     0
282
     0
283
     1
284
     0
285
     0
286
     0
287
     3
288
     0
  0
ENDTAB
  0
TABLE
  2
BLOCK_RECORD
  5
11a
100
AcDbSymbolTable
 70
     0
  0
BLOCK_RECORD
  5
11d
100
AcDbSymbolTableRecord
100
AcDbBlockTableRecord
  2
*MODEL_SPACE
  0
BLOCK_RECORD
  5
120
100
AcDbSymbolTableRecord
100
AcDbBlockTableRecord
  2
*PAPER_SPACE
  0
ENDTAB
  0
ENDSEC
  0
SECTION
  2
BLOCKS
  0
BLOCK
  5
123
330
124
100
AcDbEntity
  8
0
100
AcDbBlockBegin
  2
*Model_Space
 70
     0
 10
0.000000
 20
0.000000
 30
0.000000
  3
*Model_Space
  1
 
  0
ENDBLK
  5
126
330
124
100
AcDbEntity
  8
0
100
AcDbBlockEnd
  0
BLOCK
  5
129
330
12a
100
AcDbEntity
 67
     1
  8
0
100
AcDbBlockBegin
  2
*Paper_Space
 70
     0
 10
0.000000
 20
0.000000
 30
0.000000
  3
*Paper_Space
  1
 
  0
ENDBLK
  5
12c
330
12d
100
AcDbEntity
 67
     1
  8
0
100
AcDbBlockEnd
  0
ENDSEC
  0
SECTION
  2
ENTITIES
  0
LWPOLYLINE
  5
12f
100
AcDbEntity
  8
0
100
AcDbPolyline
 90
    30
 70
     0
 43
0.200000
 10
116.450000
 20
192.800000
 10
117.775000
 20
193.075000
 10
118.175000
 20
193.700000
 10
118.775000
 20
193.700000
 10
124.425000
 20
180.450000
 10
128.000000
 20
165.350000
 10
129.175000
 20
165.100000
 10
132.100000
 20
165.350000
 10
135.875000
 20
165.325000
 10
138.700000
 20
170.000000
 10
140.900000
 20
176.225000
 10
140.850000
 20
177.425000
 10
141.150000
 20
178.550000
 10
154.150000
 20
177.575000
 10
154.875000
 20
177.175000
 10
154.700000
 20
175.325000
 10
160.825000
 20
175.400000
 10
160.750000
 20
181.950000
 10
159.950000
 20
182.750000
 10
158.500000
 20
183.000000
 10
150.900000
 20
184.750000
 10
147.100000
 20
185.650000
 10
144.650000
 20
185.500000
 10
142.075000
 20
186.075000
 10
140.550000
 20
185.900000
 10
138.950000
 20
188.600000
 10
137.650000
 20
191.350000
 10
134.250000
 20
195.850000
 10
128.800000
 20
201.525000
 10
127.150000
 20
201.475000
  0
CIRCLE
  5
16e
100
AcDbEntity
  8
0
370
    20
100
AcDbCircle
 10
119.950000
 20
202.750000
 40
7.400000
  0
LWPOLYLINE
  5
171
100
AcDbEntity
  8
0
100
AcDbPolyline
 90
     3
 70
     0
 43
0.200000
 10
60.950000
 20
168.150000
 10
61.025000
 20
168.750000
 10
112.525000
 20
199.625000
  0
LWPOLYLINE
  5
17a
100
AcDbEntity
  8
0
100
AcDbPolyline
 90
     4
 70
     0
 43
0.200000
 10
112.525000
 20
199.625000
 10
110.825000
 20
202.450000
 10
111.000000
 20
204.075000
 10
112.325000
 20
204.325000
  0
LWPOLYLINE
  5
185
100
AcDbEntity
  8
0
100
AcDbPolyline
 90
     2
 70
     0
 43
0.200000
 10
112.850000
 20
201.625000
 10
124.325000
 20
208.250000
  0
LWPOLYLINE
  5
18c
100
AcDbEntity
  8
0
100
AcDbPolyline
 90
     2
 70
     0
 43
0.200000
 10
115.850000
 20
197.300000
 10
127.300000
 20
203.425000
  0
LWPOLYLINE
  5
193
100
AcDbEntity
  8
0
100
AcDbPolyline
 90
    11
 70
     0
 43
0.200000
 10
124.025000
 20
208.975000
 10
124.800000
 20
209.425000
 10
128.150000
 20
210.200000
 10
132.625000
 20
210.625000
 10
135.400000
 20
210.700000
 10
136.125000
 20
210.125000
 10
137.100000
 20
208.300000
 10
138.625000
 20
203.925000
 10
139.425000
 20
202.025000
 10
140.425000
 20
198.275000
 10
141.375000
 20
193.375000
  0
SPLINE
  5
1ac
100
AcDbEntity
  8
0
370
    20
100
AcDbSpline
210
0.000000
220
0.000000
230
1.000000
 70
     8
 71
     3
 72
    20
 73
    16
 74
     0
 42
0.0000001
 43
0.0000001
 44
0.0000000001
 40
0.000000
 40
0.000000
 40
0.000000
 40
0.000000
 40
3.444198
 40
3.444198
 40
3.444198
 40
7.647842
 40
7.647842
 40
7.647842
 40
11.243760
 40
11.243760
 40
11.243760
 40
14.248860
 40
14.248860
 40
14.248860
 40
15.019006
 40
15.019006
 40
15.019006
 40
15.019006
 10
141.150000
 20
178.550000
 30
0.000000
 10
140.800000
 20
179.650000
 30
0.000000
 10
140.425000
 20
180.750000
 30
0.000000
 10
140.350000
 20
181.900000
 30
0.000000
 10
140.225000
 20
183.300000
 30
0.000000
 10
140.350000
 20
184.725000
 30
0.000000
 10
140.525000
 20
186.100000
 30
0.000000
 10
140.700000
 20
187.300000
 30
0.000000
 10
141.175000
 20
188.425000
 30
0.000000
 10
141.350000
 20
189.600000
 30
0.000000
 10
141.525000
 20
190.575000
 30
0.000000
 10
141.400000
 20
191.600000
 30
0.000000
 10
141.525000
 20
192.600000
 30
0.000000
 10
141.575000
 20
192.850000
 30
0.000000
 10
141.625000
 20
192.350000
 30
0.000000
 10
141.700000
 20
191.850000
 30
0.000000
  0
SPLINE
  5
1af
100
AcDbEntity
  8
0
370
    20
100
AcDbSpline
210
0.000000
220
0.000000
230
1.000000
 70
     8
 71
     3
 72
    38
 73
    34
 74
     0
 42
0.0000001
 43
0.0000001
 44
0.0000000001
 40
0.000000
 40
0.000000
 40
0.000000
 40
0.000000
 40
0.509902
 40
0.509902
 40
0.509902
 40
8.493714
 40
8.493714
 40
8.493714
 40
18.296902
 40
18.296902
 40
18.296902
 40
21.376878
 40
21.376878
 40
21.376878
 40
24.839265
 40
24.839265
 40
24.839265
 40
27.838536
 40
27.838536
 40
27.838536
 40
30.443579
 40
30.443579
 40
30.443579
 40
31.879284
 40
31.879284
 40
31.879284
 40
36.017067
 40
36.017067
 40
36.017067
 40
40.472752
 40
40.472752
 40
40.472752
 40
56.501047
 40
56.501047
 40
56.501047
 40
56.501047
 10
129.600000
 20
166.925000
 30
0.000000
 10
129.650000
 20
167.075000
 30
0.000000
 10
129.675000
 20
167.250000
 30
0.000000
 10
129.700000
 20
167.425000
 30
0.000000
 10
129.850000
 20
170.075000
 30
0.000000
 10
130.050000
 20
172.725000
 30
0.000000
 10
130.075000
 20
175.400000
 30
0.000000
 10
130.100000
 20
178.675000
 30
0.000000
 10
129.925000
 20
181.925000
 30
0.000000
 10
129.825000
 20
185.200000
 30
0.000000
 10
129.775000
 20
186.225000
 30
0.000000
 10
129.825000
 20
187.250000
 30
0.000000
 10
129.650000
 20
188.275000
 30
0.000000
 10
129.450000
 20
189.425000
 30
0.000000
 10
129.250000
 20
190.600000
 30
0.000000
 10
128.775000
 20
191.625000
 30
0.000000
 10
128.300000
 20
192.525000
 30
0.000000
 10
127.850000
 20
193.900000
 30
0.000000
 10
126.850000
 20
193.925000
 30
0.000000
 10
125.975000
 20
193.975000
 30
0.000000
 10
125.650000
 20
192.625000
 30
0.000000
 10
125.275000
 20
191.850000
 30
0.000000
 10
125.075000
 20
191.425000
 30
0.000000
 10
125.125000
 20
190.900000
 30
0.000000
 10
125.100000
 20
190.425000
 30
0.000000
 10
124.950000
 20
189.050000
 30
0.000000
 10
124.800000
 20
187.700000
 30
0.000000
 10
124.775000
 20
186.300000
 30
0.000000
 10
124.775000
 20
184.800000
 30
0.000000
 10
124.675000
 20
183.300000
 30
0.000000
 10
125.000000
 20
181.850000
 30
0.000000
 10
126.175000
 20
176.625000
 30
0.000000
 10
127.700000
 20
171.500000
 30
0.000000
 10
129.175000
 20
166.375000
 30
0.000000
  0
LWPOLYLINE
  5
1b2
100
AcDbEntity
  8
0
100
AcDbPolyline
 90
     4
 70
     1
 43
0.200000
 10
155.725000
 20
175.300000
 10
160.225000
 20
175.425000
 10
160.275000
 20
174.575000
 10
155.775000
 20
174.450000
  0
LWPOLYLINE
  5
1bd
100
AcDbEntity
  8
0
100
AcDbPolyline
 90
     4
 70
     0
 43
0.200000
 10
141.350000
 20
189.600000
 10
146.800000
 20
189.125000
 10
149.775000
 20
188.400000
 10
160.300000
 20
185.300000
  0
LWPOLYLINE
  5
1c8
100
AcDbEntity
  8
0
100
AcDbPolyline
 90
    28
 70
     0
 43
0.200000
 10
115.500000
 20
62.725000
 10
115.725000
 20
62.850000
 10
125.500000
 20
64.275000
 10
126.150000
 20
64.975000
 10
126.375000
 20
66.500000
 10
126.275000
 20
66.975000
 10
124.900000
 20
67.525000
 10
124.525000
 20
68.400000
 10
124.475000
 20
69.850000
 10
125.100000
 20
70.675000
 10
126.450000
 20
71.525000
 10
127.250000
 20
71.625000
 10
127.725000
 20
75.500000
 10
137.375000
 20
75.625000
 10
137.900000
 20
71.150000
 10
139.350000
 20
71.050000
 10
140.150000
 20
70.425000
 10
140.725000
 20
69.000000
 10
140.200000
 20
68.025000
 10
138.725000
 20
66.900000
 10
137.600000
 20
66.900000
 10
137.750000
 20
64.775000
 10
148.425000
 20
62.150000
 10
148.550000
 20
61.850000
 10
148.150000
 20
61.450000
 10
115.500000
 20
61.800000
 10
115.375000
 20
62.500000
 10
115.675000
 20
62.800000
  0
CIRCLE
  5
203
100
AcDbEntity
  8
0
370
    20
100
AcDbCircle
 10
125.800000
 20
68.975000
 40
0.850000
  0
CIRCLE
  5
206
100
AcDbEntity
  8
0
370
    20
100
AcDbCircle
 10
138.625000
 20
69.250000
 40
0.850000
  0
LWPOLYLINE
  5
209
100
AcDbEntity
  8
0
100
AcDbPolyline
 90
    21
 70
     0
 43
0.200000
 10
61.175000
 20
168.700000
 10
61.150000
 20
168.700000
 10
62.475000
 20
166.100000
 10
62.900000
 20
165.050000
 10
62.175000
 20
164.575000
 10
61.350000
 20
164.625000
 10
59.250000
 20
163.275000
 10
54.825000
 20
160.175000
 10
51.750000
 20
159.000000
 10
49.925000
 20
158.900000
 10
49.425000
 20
159.750000
 10
49.275000
 20
160.400000
 10
49.075000
 20
161.375000
 10
49.900000
 20
162.250000
 10
52.250000
 20
163.950000
 10
55.300000
 20
165.750000
 10
58.300000
 20
166.875000
 10
59.050000
 20
167.550000
 10
59.700000
 20
168.325000
 10
59.950000
 20
168.625000
 10
61.025000
 20
168.750000
  0
LWPOLYLINE
  5
236
100
AcDbEntity
  8
0
100
AcDbPolyline
 90
     5
 70
     0
 43
0.200000
 10
158.500000
 20
183.000000
 10
158.225000
 20
182.775000
 10
156.950000
 20
180.775000
 10
155.300000
 20
178.475000
 10
154.275000
 20
177.500000
  0
SPLINE
  5
243
100
AcDbEntity
  8
0
370
    20
100
AcDbSpline
210
0.000000
220
0.000000
230
1.000000
 70
     8
 71
     3
 72
    14
 73
    10
 74
     0
 42
0.0000001
 43
0.0000001
 44
0.0000000001
 40
0.000000
 40
0.000000
 40
0.000000
 40
0.000000
 40
0.079057
 40
0.079057
 40
0.079057
 40
14.139929
 40
14.139929
 40
14.139929
 40
23.666537
 40
23.666537
 40
23.666537
 40
23.666537
 10
130.675000
 20
199.200000
 30
0.000000
 10
130.675000
 20
199.175000
 30
0.000000
 10
130.675000
 20
199.150000
 30
0.000000
 10
130.700000
 20
199.125000
 30
0.000000
 10
131.350000
 20
194.475000
 30
0.000000
 10
132.225000
 20
189.875000
 30
0.000000
 10
132.650000
 20
185.200000
 30
0.000000
 10
132.925000
 20
182.025000
 30
0.000000
 10
132.900000
 20
178.850000
 30
0.000000
 10
132.825000
 20
175.675000
 30
0.000000
  0
ELLIPSE
  5
246
100
AcDbEntity
  8
0
370
    20
100
AcDbEllipse
 10
120.375000
 20
203.025000
 30
0.000000
 11
1.199589
 21
0.031412
 31
0.000000
210
0.000000
220
0.000000
230
1.000000
 40
0.958333
 41
0.000000
 42
6.283185
  0
LINE
  5
249
100
AcDbEntity
  8
0
370
    20
100
AcDbLine
 10
115.025000
 20
194.475000
 11
116.450000
 21
192.800000
  0
LWPOLYLINE
  5
24c
100
AcDbEntity
  8
0
100
AcDbPolyline
 90
     4
 70
     1
 43
0.200000
 10
129.000000
 20
165.350000
 10
136.075000
 20
165.350000
 10
136.075000
 20
75.575000
 10
129.000000
 20
75.575000
  0
LINE
  5
257
100
AcDbEntity
  8
0
370
    20
100
AcDbLine
 10
108.000000
 20
203.000000
 11
44.000000
 21
165.000000
  0
LWPOLYLINE
  5
25a
100
AcDbEntity
  8
0
100
AcDbPolyline
 90
     3
 70
     0
 43
0.200000
 10
45.775000
 20
167.425000
 10
44.000000
 20
165.000000
 10
46.950000
 20
165.450000
  0
LWPOLYLINE
  5
263
100
AcDbEntity
  8
0
100
AcDbPolyline
 90
     3
 70
     0
 43
0.200000
 10
106.200000
 20
200.600000
 10
108.000000
 20
203.000000
 10
105.025000
 20
202.575000
  0
MTEXT
  5
26c
100
AcDbEntity
  8
0
100
AcDbMText
 10
64.000000
 20
195.000000
 40
3.168750
 41
42.250000
 71
     1
 72
     5
  1
\fTimes New Roman|b1|i0|c0|p18;\T1.0200;590\fＭＳ 明朝|b1|i0|c128|p17;\P\fTimes New Roman|b1|i0|c0|p18;440(\fＭＳ 明朝|b1|i0|c128|p17;公共型）
 44
0.966489
 73
     1
  7
BIGFONT
  0
LINE
  5
26f
100
AcDbEntity
  8
0
370
    20
100
AcDbLine
 10
52.000000
 20
153.000000
 11
64.000000
 21
161.000000
  0
LWPOLYLINE
  5
272
100
AcDbEntity
  8
0
100
AcDbPolyline
 90
     3
 70
     0
 43
0.200000
 10
62.325000
 20
158.525000
 10
64.000000
 20
161.000000
 10
61.050000
 20
160.425000
  0
LWPOLYLINE
  5
27b
100
AcDbEntity
  8
0
100
AcDbPolyline
 90
     3
 70
     0
 43
0.200000
 10
53.650000
 20
155.500000
 10
52.000000
 20
153.000000
 10
54.925000
 20
153.600000
  0
MTEXT
  5
284
100
AcDbEntity
  8
0
100
AcDbMText
 10
58.000000
 20
153.000000
 40
4.225000
 41
12.675000
 71
     1
 72
     5
  1
\fTimes New Roman|b1|i0|c0|p18;\T0.9100;120
 44
0.798817
 73
     1
  7
BIGFONT
  0
LINE
  5
287
100
AcDbEntity
  8
0
370
    20
100
AcDbLine
 10
170.000000
 20
211.000000
 11
170.000000
 21
61.000000
  0
LWPOLYLINE
  5
28a
100
AcDbEntity
  8
0
100
AcDbPolyline
 90
     3
 70
     0
 43
0.200000
 10
168.850000
 20
63.775000
 10
170.000000
 20
61.000000
 10
171.125000
 20
63.775000
  0
LWPOLYLINE
  5
293
100
AcDbEntity
  8
0
100
AcDbPolyline
 90
     3
 70
     0
 43
0.200000
 10
171.125000
 20
208.250000
 10
170.000000
 20
211.000000
 10
168.850000
 20
208.250000
  0
MTEXT
  5
29c
100
AcDbEntity
  8
0
100
AcDbMText
 10
170.000000
 20
139.000000
 40
4.225000
 41
16.900000
 71
     1
 72
     5
  1
\fTimes New Roman|b1|i0|c0|p18;\T0.9100;1030
 44
0.798817
 73
     1
  7
BIGFONT
  0
MTEXT
  5
29f
100
AcDbEntity
  8
0
100
AcDbMText
 10
146.000000
 20
157.000000
 40
4.225000
 41
12.675000
 71
     1
 72
     5
  1
\fTimes New Roman|b1|i0|c0|p18;\T0.9100;220
 44
0.798817
 73
     1
  7
BIGFONT
  0
LINE
  5
2a2
100
AcDbEntity
  8
0
370
    20
100
AcDbLine
 10
132.000000
 20
151.000000
 11
161.225000
 21
151.000000
  0
LWPOLYLINE
  5
2a5
100
AcDbEntity
  8
0
100
AcDbPolyline
 90
     3
 70
     0
 43
0.200000
 10
134.725000
 20
152.150000
 10
132.000000
 20
151.000000
 10
134.725000
 20
149.875000
  0
LWPOLYLINE
  5
2ae
100
AcDbEntity
  8
0
100
AcDbPolyline
 90
     3
 70
     0
 43
0.200000
 10
158.425000
 20
149.875000
 10
161.225000
 20
151.000000
 10
158.425000
 20
152.150000
  0
LINE
  5
2b7
100
AcDbEntity
  8
0
370
    20
100
AcDbLine
 10
105.150000
 20
158.900000
 11
105.150000
 21
61.000000
  0
LWPOLYLINE
  5
2ba
100
AcDbEntity
  8
0
100
AcDbPolyline
 90
     3
 70
     0
 43
0.200000
 10
106.275000
 20
156.200000
 10
105.150000
 20
158.900000
 10
104.000000
 20
156.200000
  0
LWPOLYLINE
  5
2c3
100
AcDbEntity
  8
0
100
AcDbPolyline
 90
     3
 70
     0
 43
0.200000
 10
104.000000
 20
63.825000
 10
105.150000
 20
61.000000
 10
106.275000
 20
63.825000
  0
MTEXT
  5
2cc
100
AcDbEntity
  8
0
100
AcDbMText
 10
89.325000
 20
120.075000
 40
4.225000
 41
19.012500
 71
     1
 72
     5
  1
\fＭＳ 明朝|b1|i0|c128|p17;\T1.0200;７００
 44
0.798817
 73
     1
  7
BIGFONT
  0
LINE
  5
2cf
100
AcDbEntity
  8
0
370
    20
100
AcDbLine
 10
116.000000
 20
55.000000
 11
148.000000
 21
55.000000
  0
LWPOLYLINE
  5
2d2
100
AcDbEntity
  8
0
100
AcDbPolyline
 90
     3
 70
     0
 43
0.200000
 10
145.225000
 20
53.875000
 10
148.000000
 20
55.000000
 10
145.225000
 20
56.150000
  0
LWPOLYLINE
  5
2db
100
AcDbEntity
  8
0
100
AcDbPolyline
 90
     3
 70
     0
 43
0.200000
 10
118.750000
 20
56.150000
 10
116.000000
 20
55.000000
 10
118.750000
 20
53.875000
  0
MTEXT
  5
2e4
100
AcDbEntity
  8
0
100
AcDbMText
 10
127.475000
 20
53.925000
 40
4.225000
 41
19.012500
 71
     1
 72
     5
  1
\fＭＳ 明朝|b1|i0|c128|p17;\T1.0200;Φ\fTimes New Roman|b1|i0|c0|p18;205
 44
0.798817
 73
     1
  7
BIGFONT
  0
LINE
  5
2e7
100
AcDbEntity
  8
0
370
    20
100
AcDbLine
 10
152.000000
 20
61.000000
 11
152.000000
 21
75.000000
  0
LWPOLYLINE
  5
2ea
100
AcDbEntity
  8
0
100
AcDbPolyline
 90
     3
 70
     0
 43
0.200000
 10
153.125000
 20
72.250000
 10
152.000000
 20
75.000000
 10
150.850000
 20
72.250000
  0
LWPOLYLINE
  5
2f3
100
AcDbEntity
  8
0
100
AcDbPolyline
 90
     3
 70
     0
 43
0.200000
 10
150.850000
 20
63.775000
 10
152.000000
 20
61.000000
 10
153.125000
 20
63.775000
  0
MTEXT
  5
2fc
100
AcDbEntity
  8
0
100
AcDbMText
 10
154.000000
 20
71.000000
 40
4.225000
 41
8.450000
 71
     1
 72
     5
  1
\fTimes New Roman|b1|i0|c0|p18;\T0.9100;90
 44
0.798817
 73
     1
  7
BIGFONT
  0
MTEXT
  5
2ff
100
AcDbEntity
  8
0
100
AcDbMText
 10
12.000000
 20
251.000000
 40
3.168750
 41
63.375000
 71
     1
 72
     5
  3
\fTimes New Roman|b1|i0|c0|p18;\T1.0200;NIRA\fＭＳ 明朝|b1|i0|c128|p17; \fTimes New Roman|b1|i0|c0|p18;standard\fＭＳ 明朝|b1|i0|c128|p17; \fTimes New Roman|b1|i0|c0|p18;type\fＭＳ 明朝|b1|i0|c128|p17;\P     標準タイプ\P
  1
\fTimes New Roman|b1|i0|c0|p18;NIRA\fＭＳ 明朝|b1|i0|c128|p17; \fTimes New Roman|b1|i0|c0|p18;playground\fＭＳ 明朝|b1|i0|c128|p17;\P      公共型
 44
0.966489
 73
     1
  7
BIGFONT
  0
LINE
  5
302
100
AcDbEntity
  8
0
370
    20
100
AcDbLine
 10
62.525000
 20
166.250000
 11
113.775000
 21
196.200000
  0
LWPOLYLINE
  5
305
100
AcDbEntity
  8
0
100
AcDbPolyline
 90
     2
 70
     0
 43
0.200000
 10
112.525000
 20
199.625000
 10
115.400000
 20
194.175000
  0
SPLINE
  5
30c
100
AcDbEntity
  8
0
370
    20
100
AcDbSpline
210
0.000000
220
0.000000
230
1.000000
 70
     8
 71
     3
 72
    83
 73
    79
 74
     0
 42
0.0000001
 43
0.0000001
 44
0.0000000001
 40
0.000000
 40
0.000000
 40
0.000000
 40
0.000000
 40
0.025000
 40
0.025000
 40
0.025000
 40
0.768303
 40
0.768303
 40
0.768303
 40
1.295679
 40
1.295679
 40
1.295679
 40
2.078303
 40
2.078303
 40
2.078303
 40
2.485273
 40
2.485273
 40
2.485273
 40
3.185720
 40
3.185720
 40
3.185720
 40
3.782063
 40
3.782063
 40
3.782063
 40
4.497954
 40
4.497954
 40
4.497954
 40
5.605315
 40
5.605315
 40
5.605315
 40
6.538723
 40
6.538723
 40
6.538723
 40
7.585743
 40
7.585743
 40
7.585743
 40
8.751933
 40
8.751933
 40
8.751933
 40
9.453717
 40
9.453717
 40
9.453717
 40
10.584258
 40
10.584258
 40
10.584258
 40
11.316123
 40
11.316123
 40
11.316123
 40
13.226620
 40
13.226620
 40
13.226620
 40
13.727244
 40
13.727244
 40
13.727244
 40
14.581645
 40
14.581645
 40
14.581645
 40
15.440787
 40
15.440787
 40
15.440787
 40
16.642868
 40
16.642868
 40
16.642868
 40
17.694058
 40
17.694058
 40
17.694058
 40
19.009353
 40
19.009353
 40
19.009353
 40
20.694954
 40
20.694954
 40
20.694954
 40
21.253971
 40
21.253971
 40
21.253971
 40
22.321971
 40
22.321971
 40
22.321971
 40
24.014971
 40
24.014971
 40
24.014971
 40
24.014971
 10
141.550000
 20
192.000000
 30
0.000000
 10
141.575000
 20
192.000000
 30
0.000000
 10
141.575000
 20
192.000000
 30
0.000000
 10
141.575000
 20
192.000000
 30
0.000000
 10
141.750000
 20
191.825000
 30
0.000000
 10
141.850000
 20
191.550000
 30
0.000000
 10
142.075000
 20
191.450000
 30
0.000000
 10
142.225000
 20
191.375000
 30
0.000000
 10
142.425000
 20
191.450000
 30
0.000000
 10
142.600000
 20
191.500000
 30
0.000000
 10
142.850000
 20
191.575000
 30
0.000000
 10
143.050000
 20
191.825000
 30
0.000000
 10
143.300000
 20
191.850000
 30
0.000000
 10
143.425000
 20
191.850000
 30
0.000000
 10
143.525000
 20
191.675000
 30
0.000000
 10
143.600000
 20
191.575000
 30
0.000000
 10
143.750000
 20
191.400000
 30
0.000000
 10
143.825000
 20
191.175000
 30
0.000000
 10
144.000000
 20
191.000000
 30
0.000000
 10
144.150000
 20
190.850000
 30
0.000000
 10
144.300000
 20
190.700000
 30
0.000000
 10
144.500000
 20
190.675000
 30
0.000000
 10
144.725000
 20
190.650000
 30
0.000000
 10
144.975000
 20
190.725000
 30
0.000000
 10
145.200000
 20
190.825000
 30
0.000000
 10
145.550000
 20
190.975000
 30
0.000000
 10
145.825000
 20
191.275000
 30
0.000000
 10
146.175000
 20
191.350000
 30
0.000000
 10
146.475000
 20
191.425000
 30
0.000000
 10
146.850000
 20
191.400000
 30
0.000000
 10
147.100000
 20
191.225000
 30
0.000000
 10
147.400000
 20
191.025000
 30
0.000000
 10
147.425000
 20
190.600000
 30
0.000000
 10
147.675000
 20
190.350000
 30
0.000000
 10
147.950000
 20
190.075000
 30
0.000000
 10
148.300000
 20
189.875000
 30
0.000000
 10
148.675000
 20
189.750000
 30
0.000000
 10
148.900000
 20
189.675000
 30
0.000000
 10
149.150000
 20
189.750000
 30
0.000000
 10
149.375000
 20
189.800000
 30
0.000000
 10
149.700000
 20
189.875000
 30
0.000000
 10
150.125000
 20
190.100000
 30
0.000000
 10
150.450000
 20
190.150000
 30
0.000000
 10
150.750000
 20
190.200000
 30
0.000000
 10
150.925000
 20
190.200000
 30
0.000000
 10
151.175000
 20
190.050000
 30
0.000000
 10
151.725000
 20
189.700000
 30
0.000000
 10
152.050000
 20
189.125000
 30
0.000000
 10
152.575000
 20
188.750000
 30
0.000000
 10
152.700000
 20
188.650000
 30
0.000000
 10
152.900000
 20
188.700000
 30
0.000000
 10
153.075000
 20
188.725000
 30
0.000000
 10
153.350000
 20
188.775000
 30
0.000000
 10
153.600000
 20
189.000000
 30
0.000000
 10
153.875000
 20
189.025000
 30
0.000000
 10
154.150000
 20
189.050000
 30
0.000000
 10
154.475000
 20
189.025000
 30
0.000000
 10
154.725000
 20
188.900000
 30
0.000000
 10
155.100000
 20
188.725000
 30
0.000000
 10
155.325000
 20
188.400000
 30
0.000000
 10
155.575000
 20
188.050000
 30
0.000000
 10
155.800000
 20
187.750000
 30
0.000000
 10
155.750000
 20
187.325000
 30
0.000000
 10
156.025000
 20
187.100000
 30
0.000000
 10
156.375000
 20
186.825000
 30
0.000000
 10
156.900000
 20
186.775000
 30
0.000000
 10
157.325000
 20
186.900000
 30
0.000000
 10
157.875000
 20
187.050000
 30
0.000000
 10
158.200000
 20
187.650000
 30
0.000000
 10
158.700000
 20
187.875000
 30
0.000000
 10
158.875000
 20
187.950000
 30
0.000000
 10
159.100000
 20
187.900000
 30
0.000000
 10
159.250000
 20
187.775000
 30
0.000000
 10
159.525000
 20
187.550000
 30
0.000000
 10
159.700000
 20
187.200000
 30
0.000000
 10
159.825000
 20
186.875000
 30
0.000000
 10
160.050000
 20
186.350000
 30
0.000000
 10
160.175000
 20
185.800000
 30
0.000000
 10
160.300000
 20
185.250000
 30
0.000000
  0
LINE
  5
30f
100
AcDbEntity
  8
0
370
    20
100
AcDbLine
 10
141.375000
 20
193.375000
 11
141.525000
 21
192.700000
  0
LWPOLYLINE
  5
312
100
AcDbEntity
  8
0
100
AcDbPolyline
 90
     4
 70
     1
 43
0.200000
 10
15.225000
 20
208.400000
 10
16.000000
 20
208.400000
 10
16.000000
 20
199.000000
 10
15.225000
 20
199.000000
  0
LWPOLYLINE
  5
31d
100
AcDbEntity
  8
0
100
AcDbPolyline
 90
     4
 70
     1
 43
0.200000
 10
34.975000
 20
208.350000
 10
35.750000
 20
208.350000
 10
35.750000
 20
198.950000
 10
34.975000
 20
198.950000
  0
LWPOLYLINE
  5
328
100
AcDbEntity
  8
0
100
AcDbPolyline
 90
     5
 70
     0
 43
0.200000
 10
16.000000
 20
208.400000
 10
18.475000
 20
208.400000
 10
19.325000
 20
209.250000
 10
23.075000
 20
210.600000
 10
26.000000
 20
210.700000
  0
LWPOLYLINE
  5
335
100
AcDbEntity
  8
0
100
AcDbPolyline
 90
    10
 70
     0
 43
0.200000
 10
16.375000
 20
199.725000
 10
16.600000
 20
199.200000
 10
18.000000
 20
195.000000
 10
19.825000
 20
191.475000
 10
20.000000
 20
191.000000
 10
20.575000
 20
184.250000
 10
21.400000
 20
182.775000
 10
22.875000
 20
181.850000
 10
25.075000
 20
181.100000
 10
26.000000
 20
181.000000
  0
LWPOLYLINE
  5
34c
100
AcDbEntity
  8
0
100
AcDbPolyline
 90
     7
 70
     0
 43
0.200000
 10
16.900000
 20
198.475000
 10
16.900000
 20
197.950000
 10
20.050000
 20
184.450000
 10
20.875000
 20
180.575000
 10
21.200000
 20
177.450000
 10
21.625000
 20
176.300000
 10
26.225000
 20
176.100000
  0
LWPOLYLINE
  5
35d
100
AcDbEntity
  8
0
100
AcDbPolyline
 90
     7
 70
     0
 43
0.200000
 10
20.000000
 20
191.000000
 10
19.950000
 20
192.300000
 10
22.025000
 20
193.975000
 10
23.175000
 20
186.850000
 10
24.225000
 20
185.500000
 10
24.950000
 20
184.975000
 10
26.000000
 20
185.000000
  0
SPLINE
  5
36e
100
AcDbEntity
  8
0
370
    20
100
AcDbSpline
210
0.000000
220
0.000000
230
1.000000
 70
     8
 71
     3
 72
    14
 73
    10
 74
     0
 42
0.0000001
 43
0.0000001
 44
0.0000000001
 40
0.000000
 40
0.000000
 40
0.000000
 40
0.000000
 40
1.632483
 40
1.632483
 40
1.632483
 40
3.608906
 40
3.608906
 40
3.608906
 40
4.887822
 40
4.887822
 40
4.887822
 40
4.887822
 10
22.025000
 20
193.975000
 30
0.000000
 10
22.325000
 20
194.450000
 30
0.000000
 10
22.625000
 20
194.925000
 30
0.000000
 10
23.075000
 20
195.225000
 30
0.000000
 10
23.625000
 20
195.575000
 30
0.000000
 10
24.300000
 20
195.700000
 30
0.000000
 10
24.950000
 20
195.850000
 30
0.000000
 10
25.375000
 20
195.950000
 30
0.000000
 10
25.800000
 20
195.950000
 30
0.000000
 10
26.225000
 20
195.950000
 30
0.000000
  0
SPLINE
  5
371
100
AcDbEntity
  8
0
370
    20
100
AcDbSpline
210
0.000000
220
0.000000
230
1.000000
 70
     8
 71
     3
 72
    14
 73
    10
 74
     0
 42
0.0000001
 43
0.0000001
 44
0.0000000001
 40
0.000000
 40
0.000000
 40
0.000000
 40
0.000000
 40
1.650757
 40
1.650757
 40
1.650757
 40
3.108495
 40
3.108495
 40
3.108495
 40
3.503780
 40
3.503780
 40
3.503780
 40
3.503780
 10
25.225000
 20
185.900000
 30
0.000000
 10
24.725000
 20
186.300000
 30
0.000000
 10
24.200000
 20
186.700000
 30
0.000000
 10
24.275000
 20
187.250000
 30
0.000000
 10
24.350000
 20
187.725000
 30
0.000000
 10
25.075000
 20
187.850000
 30
0.000000
 10
25.525000
 20
188.000000
 30
0.000000
 10
25.650000
 20
188.050000
 30
0.000000
 10
25.750000
 20
187.900000
 30
0.000000
 10
25.850000
 20
187.775000
 30
0.000000
  0
SPLINE
  5
374
100
AcDbEntity
  8
0
370
    20
100
AcDbSpline
210
0.000000
220
0.000000
230
1.000000
 70
     8
 71
     3
 72
    20
 73
    16
 74
     0
 42
0.0000001
 43
0.0000001
 44
0.0000000001
 40
0.000000
 40
0.000000
 40
0.000000
 40
0.000000
 40
1.777815
 40
1.777815
 40
1.777815
 40
2.727815
 40
2.727815
 40
2.727815
 40
3.170110
 40
3.170110
 40
3.170110
 40
4.569440
 40
4.569440
 40
4.569440
 40
6.589650
 40
6.589650
 40
6.589650
 40
6.589650
 10
26.000000
 20
192.500000
 30
0.000000
 10
25.425000
 20
192.450000
 30
0.000000
 10
24.825000
 20
192.425000
 30
0.000000
 10
24.225000
 20
192.400000
 30
0.000000
 10
23.900000
 20
192.400000
 30
0.000000
 10
23.575000
 20
192.325000
 30
0.000000
 10
23.275000
 20
192.400000
 30
0.000000
 10
23.125000
 20
192.425000
 30
0.000000
 10
22.900000
 20
192.600000
 30
0.000000
 10
22.975000
 20
192.725000
 30
0.000000
 10
23.225000
 20
193.125000
 30
0.000000
 10
23.600000
 20
193.450000
 30
0.000000
 10
24.025000
 20
193.650000
 30
0.000000
 10
24.650000
 20
193.925000
 30
0.000000
 10
25.325000
 20
194.000000
 30
0.000000
 10
26.000000
 20
194.075000
 30
0.000000
  0
SPLINE
  5
377
100
AcDbEntity
  8
0
370
    20
100
AcDbSpline
210
0.000000
220
0.000000
230
1.000000
 70
     8
 71
     3
 72
    20
 73
    16
 74
     0
 42
0.0000001
 43
0.0000001
 44
0.0000000001
 40
0.000000
 40
0.000000
 40
0.000000
 40
0.000000
 40
1.171804
 40
1.171804
 40
1.171804
 40
1.923885
 40
1.923885
 40
1.923885
 40
2.763899
 40
2.763899
 40
2.763899
 40
3.849314
 40
3.849314
 40
3.849314
 40
5.242602
 40
5.242602
 40
5.242602
 40
5.242602
 10
24.850000
 20
187.375000
 30
0.000000
 10
24.450000
 20
187.375000
 30
0.000000
 10
24.025000
 20
187.375000
 30
0.000000
 10
23.700000
 20
187.600000
 30
0.000000
 10
23.500000
 20
187.750000
 30
0.000000
 10
23.450000
 20
188.075000
 30
0.000000
 10
23.500000
 20
188.325000
 30
0.000000
 10
23.550000
 20
188.600000
 30
0.000000
 10
23.800000
 20
188.800000
 30
0.000000
 10
24.000000
 20
189.000000
 30
0.000000
 10
24.250000
 20
189.250000
 30
0.000000
 10
24.525000
 20
189.550000
 30
0.000000
 10
24.850000
 20
189.675000
 30
0.000000
 10
25.275000
 20
189.850000
 30
0.000000
 10
25.750000
 20
189.875000
 30
0.000000
 10
26.225000
 20
189.900000
 30
0.000000
  0
SPLINE
  5
37a
100
AcDbEntity
  8
0
370
    20
100
AcDbSpline
210
0.000000
220
0.000000
230
1.000000
 70
     8
 71
     3
 72
    23
 73
    19
 74
     0
 42
0.0000001
 43
0.0000001
 44
0.0000000001
 40
0.000000
 40
0.000000
 40
0.000000
 40
0.000000
 40
1.353699
 40
1.353699
 40
1.353699
 40
2.009919
 40
2.009919
 40
2.009919
 40
2.446525
 40
2.446525
 40
2.446525
 40
2.946525
 40
2.946525
 40
2.946525
 40
4.361843
 40
4.361843
 40
4.361843
 40
6.187014
 40
6.187014
 40
6.187014
 40
6.187014
 10
26.100000
 20
190.525000
 30
0.000000
 10
25.650000
 20
190.575000
 30
0.000000
 10
25.200000
 20
190.650000
 30
0.000000
 10
24.750000
 20
190.625000
 30
0.000000
 10
24.525000
 20
190.625000
 30
0.000000
 10
24.325000
 20
190.475000
 30
0.000000
 10
24.125000
 20
190.425000
 30
0.000000
 10
23.975000
 20
190.375000
 30
0.000000
 10
23.825000
 20
190.275000
 30
0.000000
 10
23.700000
 20
190.325000
 30
0.000000
 10
23.550000
 20
190.400000
 30
0.000000
 10
23.350000
 20
190.575000
 30
0.000000
 10
23.400000
 20
190.725000
 30
0.000000
 10
23.550000
 20
191.175000
 30
0.000000
 10
23.825000
 20
191.625000
 30
0.000000
 10
24.225000
 20
191.875000
 30
0.000000
 10
24.750000
 20
192.200000
 30
0.000000
 10
25.375000
 20
192.250000
 30
0.000000
 10
26.000000
 20
192.300000
 30
0.000000
  0
LWPOLYLINE
  5
37d
100
AcDbEntity
  8
0
100
AcDbPolyline
 90
     3
 70
     0
 43
0.200000
 10
18.475000
 20
208.400000
 10
18.375000
 20
207.775000
 10
16.000000
 20
203.000000
  0
LWPOLYLINE
  5
386
100
AcDbEntity
  8
0
100
AcDbPolyline
 90
     5
 70
     0
 43
0.200000
 10
34.975000
 20
208.350000
 10
32.500000
 20
208.350000
 10
31.650000
 20
209.200000
 10
27.900000
 20
210.550000
 10
24.975000
 20
210.650000
  0
LWPOLYLINE
  5
393
100
AcDbEntity
  8
0
100
AcDbPolyline
 90
    10
 70
     0
 43
0.200000
 10
34.600000
 20
199.675000
 10
34.375000
 20
199.150000
 10
32.975000
 20
194.950000
 10
31.150000
 20
191.425000
 10
30.975000
 20
190.950000
 10
30.400000
 20
184.200000
 10
29.575000
 20
182.725000
 10
28.100000
 20
181.800000
 10
25.900000
 20
181.050000
 10
24.975000
 20
180.950000
  0
LWPOLYLINE
  5
3aa
100
AcDbEntity
  8
0
100
AcDbPolyline
 90
     7
 70
     0
 43
0.200000
 10
34.075000
 20
198.425000
 10
34.075000
 20
197.900000
 10
30.925000
 20
184.400000
 10
30.100000
 20
180.525000
 10
29.775000
 20
177.400000
 10
29.350000
 20
176.250000
 10
24.750000
 20
176.050000
  0
LWPOLYLINE
  5
3bb
100
AcDbEntity
  8
0
100
AcDbPolyline
 90
     7
 70
     0
 43
0.200000
 10
30.975000
 20
190.950000
 10
31.025000
 20
192.250000
 10
28.950000
 20
193.925000
 10
27.800000
 20
186.800000
 10
26.750000
 20
185.450000
 10
26.025000
 20
184.925000
 10
24.975000
 20
184.950000
  0
SPLINE
  5
3cc
100
AcDbEntity
  8
0
370
    20
100
AcDbSpline
210
0.000000
220
0.000000
230
1.000000
 70
     8
 71
     3
 72
    14
 73
    10
 74
     0
 42
0.0000001
 43
0.0000001
 44
0.0000000001
 40
0.000000
 40
0.000000
 40
0.000000
 40
0.000000
 40
1.632483
 40
1.632483
 40
1.632483
 40
3.608906
 40
3.608906
 40
3.608906
 40
4.887822
 40
4.887822
 40
4.887822
 40
4.887822
 10
28.950000
 20
193.925000
 30
0.000000
 10
28.650000
 20
194.400000
 30
0.000000
 10
28.350000
 20
194.875000
 30
0.000000
 10
27.900000
 20
195.175000
 30
0.000000
 10
27.350000
 20
195.525000
 30
0.000000
 10
26.675000
 20
195.650000
 30
0.000000
 10
26.025000
 20
195.800000
 30
0.000000
 10
25.600000
 20
195.900000
 30
0.000000
 10
25.175000
 20
195.900000
 30
0.000000
 10
24.750000
 20
195.900000
 30
0.000000
  0
SPLINE
  5
3cf
100
AcDbEntity
  8
0
370
    20
100
AcDbSpline
210
0.000000
220
0.000000
230
1.000000
 70
     8
 71
     3
 72
    14
 73
    10
 74
     0
 42
0.0000001
 43
0.0000001
 44
0.0000000001
 40
0.000000
 40
0.000000
 40
0.000000
 40
0.000000
 40
1.650757
 40
1.650757
 40
1.650757
 40
3.108495
 40
3.108495
 40
3.108495
 40
3.503780
 40
3.503780
 40
3.503780
 40
3.503780
 10
25.850000
 20
185.900000
 30
0.000000
 10
26.350000
 20
186.300000
 30
0.000000
 10
26.875000
 20
186.700000
 30
0.000000
 10
26.800000
 20
187.250000
 30
0.000000
 10
26.725000
 20
187.725000
 30
0.000000
 10
26.000000
 20
187.850000
 30
0.000000
 10
25.550000
 20
188.000000
 30
0.000000
 10
25.425000
 20
188.050000
 30
0.000000
 10
25.325000
 20
187.900000
 30
0.000000
 10
25.225000
 20
187.775000
 30
0.000000
  0
SPLINE
  5
3d2
100
AcDbEntity
  8
0
370
    20
100
AcDbSpline
210
0.000000
220
0.000000
230
1.000000
 70
     8
 71
     3
 72
    20
 73
    16
 74
     0
 42
0.0000001
 43
0.0000001
 44
0.0000000001
 40
0.000000
 40
0.000000
 40
0.000000
 40
0.000000
 40
1.777815
 40
1.777815
 40
1.777815
 40
2.727815
 40
2.727815
 40
2.727815
 40
3.170110
 40
3.170110
 40
3.170110
 40
4.569440
 40
4.569440
 40
4.569440
 40
6.589650
 40
6.589650
 40
6.589650
 40
6.589650
 10
24.975000
 20
192.450000
 30
0.000000
 10
25.550000
 20
192.400000
 30
0.000000
 10
26.150000
 20
192.375000
 30
0.000000
 10
26.750000
 20
192.350000
 30
0.000000
 10
27.075000
 20
192.350000
 30
0.000000
 10
27.400000
 20
192.275000
 30
0.000000
 10
27.700000
 20
192.350000
 30
0.000000
 10
27.850000
 20
192.375000
 30
0.000000
 10
28.075000
 20
192.550000
 30
0.000000
 10
28.000000
 20
192.675000
 30
0.000000
 10
27.750000
 20
193.075000
 30
0.000000
 10
27.375000
 20
193.400000
 30
0.000000
 10
26.950000
 20
193.600000
 30
0.000000
 10
26.325000
 20
193.875000
 30
0.000000
 10
25.650000
 20
193.950000
 30
0.000000
 10
24.975000
 20
194.025000
 30
0.000000
  0
SPLINE
  5
3d5
100
AcDbEntity
  8
0
370
    20
100
AcDbSpline
210
0.000000
220
0.000000
230
1.000000
 70
     8
 71
     3
 72
    20
 73
    16
 74
     0
 42
0.0000001
 43
0.0000001
 44
0.0000000001
 40
0.000000
 40
0.000000
 40
0.000000
 40
0.000000
 40
1.171804
 40
1.171804
 40
1.171804
 40
1.923885
 40
1.923885
 40
1.923885
 40
2.763899
 40
2.763899
 40
2.763899
 40
3.849314
 40
3.849314
 40
3.849314
 40
5.242602
 40
5.242602
 40
5.242602
 40
5.242602
 10
26.125000
 20
187.325000
 30
0.000000
 10
26.525000
 20
187.325000
 30
0.000000
 10
26.950000
 20
187.325000
 30
0.000000
 10
27.275000
 20
187.550000
 30
0.000000
 10
27.475000
 20
187.700000
 30
0.000000
 10
27.525000
 20
188.025000
 30
0.000000
 10
27.475000
 20
188.275000
 30
0.000000
 10
27.425000
 20
188.550000
 30
0.000000
 10
27.175000
 20
188.750000
 30
0.000000
 10
26.975000
 20
188.950000
 30
0.000000
 10
26.725000
 20
189.200000
 30
0.000000
 10
26.450000
 20
189.500000
 30
0.000000
 10
26.125000
 20
189.625000
 30
0.000000
 10
25.700000
 20
189.800000
 30
0.000000
 10
25.225000
 20
189.825000
 30
0.000000
 10
24.750000
 20
189.850000
 30
0.000000
  0
SPLINE
  5
3d8
100
AcDbEntity
  8
0
370
    20
100
AcDbSpline
210
0.000000
220
0.000000
230
1.000000
 70
     8
 71
     3
 72
    23
 73
    19
 74
     0
 42
0.0000001
 43
0.0000001
 44
0.0000000001
 40
0.000000
 40
0.000000
 40
0.000000
 40
0.000000
 40
1.353699
 40
1.353699
 40
1.353699
 40
2.009919
 40
2.009919
 40
2.009919
 40
2.446525
 40
2.446525
 40
2.446525
 40
2.946525
 40
2.946525
 40
2.946525
 40
4.361843
 40
4.361843
 40
4.361843
 40
6.187014
 40
6.187014
 40
6.187014
 40
6.187014
 10
24.875000
 20
190.475000
 30
0.000000
 10
25.325000
 20
190.525000
 30
0.000000
 10
25.775000
 20
190.600000
 30
0.000000
 10
26.225000
 20
190.575000
 30
0.000000
 10
26.450000
 20
190.575000
 30
0.000000
 10
26.650000
 20
190.425000
 30
0.000000
 10
26.850000
 20
190.375000
 30
0.000000
 10
27.000000
 20
190.325000
 30
0.000000
 10
27.150000
 20
190.225000
 30
0.000000
 10
27.275000
 20
190.275000
 30
0.000000
 10
27.425000
 20
190.350000
 30
0.000000
 10
27.625000
 20
190.525000
 30
0.000000
 10
27.575000
 20
190.675000
 30
0.000000
 10
27.425000
 20
191.125000
 30
0.000000
 10
27.150000
 20
191.575000
 30
0.000000
 10
26.750000
 20
191.825000
 30
0.000000
 10
26.225000
 20
192.150000
 30
0.000000
 10
25.600000
 20
192.200000
 30
0.000000
 10
24.975000
 20
192.250000
 30
0.000000
  0
LWPOLYLINE
  5
3db
100
AcDbEntity
  8
0
100
AcDbPolyline
 90
     3
 70
     0
 43
0.200000
 10
32.500000
 20
208.350000
 10
32.600000
 20
207.725000
 10
34.975000
 20
202.950000
  0
LWPOLYLINE
  5
3e4
100
AcDbEntity
  8
0
100
AcDbPolyline
 90
     4
 70
     1
 43
0.200000
 10
21.925000
 20
164.900000
 10
29.000000
 20
164.900000
 10
29.000000
 20
75.125000
 10
21.925000
 20
75.125000
  0
LWPOLYLINE
  5
3ef
100
AcDbEntity
  8
0
100
AcDbPolyline
 90
     2
 70
     0
 43
0.200000
 10
21.925000
 20
164.900000
 10
20.875000
 20
180.575000
  0
LWPOLYLINE
  5
3f6
100
AcDbEntity
  8
0
100
AcDbPolyline
 90
     2
 70
     0
 43
0.200000
 10
29.000000
 20
164.900000
 10
29.350000
 20
176.250000
  0
LWPOLYLINE
  5
3fd
100
AcDbEntity
  8
0
100
AcDbPolyline
 90
     7
 70
     0
 43
0.200000
 10
8.525000
 20
62.300000
 10
8.750000
 20
62.425000
 10
18.525000
 20
63.850000
 10
19.175000
 20
64.550000
 10
19.400000
 20
66.075000
 10
19.300000
 20
66.550000
 10
19.225000
 20
66.575000
  0
LWPOLYLINE
  5
40e
100
AcDbEntity
  8
0
100
AcDbPolyline
 90
     4
 70
     0
 43
0.200000
 10
20.275000
 20
71.225000
 10
20.750000
 20
75.075000
 10
30.400000
 20
75.200000
 10
30.875000
 20
71.225000
  0
LWPOLYLINE
  5
419
100
AcDbEntity
  8
0
100
AcDbPolyline
 90
     9
 70
     0
 43
0.200000
 10
32.000000
 20
67.000000
 10
30.625000
 20
66.475000
 10
30.775000
 20
64.350000
 10
41.450000
 20
61.725000
 10
41.575000
 20
61.425000
 10
41.175000
 20
61.025000
 10
8.525000
 20
61.375000
 10
8.400000
 20
62.075000
 10
8.700000
 20
62.375000
  0
LINE
  5
42e
100
AcDbEntity
  8
0
370
    20
100
AcDbLine
 10
25.400000
 20
75.150000
 11
25.400000
 21
71.225000
  0
LWPOLYLINE
  5
431
100
AcDbEntity
  8
0
100
AcDbPolyline
 90
     3
 70
     0
 43
0.200000
 10
25.400000
 20
66.575000
 10
25.400000
 20
61.425000
 10
25.200000
 20
61.225000
  0
LINE
  5
43a
100
AcDbEntity
  8
0
370
    20
100
AcDbLine
 10
19.225000
 20
66.575000
 11
17.925000
 21
67.100000
  0
LWPOLYLINE
  5
43d
100
AcDbEntity
  8
0
100
AcDbPolyline
 90
     3
 70
     0
 43
0.200000
 10
19.475000
 20
71.100000
 10
20.275000
 20
71.200000
 10
20.275000
 20
71.225000
  0
LINE
  5
446
100
AcDbEntity
  8
0
370
    20
100
AcDbLine
 10
30.875000
 20
71.225000
 11
30.925000
 21
70.725000
  0
LINE
  5
449
100
AcDbEntity
  8
0
370
    20
100
AcDbLine
 10
25.400000
 20
71.225000
 11
25.400000
 21
66.575000
  0
LWPOLYLINE
  5
44c
100
AcDbEntity
  8
0
100
AcDbPolyline
 90
     8
 70
     1
 43
0.200000
 10
17.425000
 20
70.725000
 10
19.975000
 20
71.225000
 10
31.250000
 20
71.225000
 10
33.600000
 20
70.725000
 10
33.800000
 20
67.400000
 10
30.950000
 20
67.000000
 10
19.300000
 20
67.000000
 10
17.525000
 20
67.500000
  0
LWPOLYLINE
  5
45f
100
AcDbEntity
  8
0
100
AcDbPolyline
 90
     4
 70
     1
 43
0.200000
 10
22.275000
 20
176.200000
 10
28.275000
 20
176.200000
 10
28.275000
 20
175.100000
 10
22.275000
 20
175.100000
  0
LWPOLYLINE
  5
46a
100
AcDbEntity
  8
0
100
AcDbPolyline
 90
     2
 70
     0
 43
0.200000
 10
16.600000
 20
198.850000
 10
16.000000
 20
199.000000
  0
LWPOLYLINE
  5
471
100
AcDbEntity
  8
0
100
AcDbPolyline
 90
     2
 70
     0
 43
0.200000
 10
35.125000
 20
198.825000
 10
34.075000
 20
198.425000
  0
ELLIPSE
  5
478
100
AcDbEntity
  8
0
370
    20
100
AcDbEllipse
 10
15.150000
 20
203.475000
 30
0.000000
 11
0.000000000000000
 21
0.725000
 31
0.000000
210
0.000000
220
0.000000
230
1.000000
 40
0.517241
 41
0.000000
 42
3.141593
  0
ELLIPSE
  5
47b
100
AcDbEntity
  8
0
370
    20
100
AcDbEllipse
 10
35.825000
 20
203.575000
 30
0.000000
 11
0.000000000000000
 21
0.725000
 31
0.000000
210
0.000000
220
0.000000
230
1.000000
 40
0.517241
 41
3.141593
 42
0.000000
  0
LWPOLYLINE
  5
47e
100
AcDbEntity
  8
0
100
AcDbPolyline
 90
     2
 70
     0
 43
0.200000
 10
160.800000
 20
181.425000
 10
161.325000
 20
184.775000
  0
LWPOLYLINE
  5
485
100
AcDbEntity
  8
0
100
AcDbPolyline
 90
     2
 70
     0
 43
0.200000
 10
161.325000
 20
184.775000
 10
160.275000
 20
185.300000
  0
LWPOLYLINE
  5
48c
100
AcDbEntity
  8
0
100
AcDbPolyline
 90
     2
 70
     0
 43
0.200000
 10
135.400000
 20
210.700000
 10
176.000000
 20
210.700000
  0
LINE
  5
493
100
AcDbEntity
  8
0
370
    20
100
AcDbLine
 10
39.175000
 20
216.400000
 11
162.000000
 21
216.400000
  0
LWPOLYLINE
  5
496
100
AcDbEntity
  8
0
100
AcDbPolyline
 90
     3
 70
     0
 43
0.200000
 10
41.875000
 20
217.550000
 10
39.175000
 20
216.400000
 10
41.875000
 20
215.275000
  0
LWPOLYLINE
  5
49f
100
AcDbEntity
  8
0
100
AcDbPolyline
 90
     3
 70
     0
 43
0.200000
 10
159.175000
 20
215.275000
 10
162.000000
 20
216.400000
 10
159.175000
 20
217.550000
  0
LWPOLYLINE
  5
4a8
100
AcDbEntity
  8
0
100
AcDbPolyline
 90
     2
 70
     0
 43
0.200000
 10
161.225000
 20
149.000000
 10
161.225000
 20
216.675000
  0
LWPOLYLINE
  5
4af
100
AcDbEntity
  8
0
  6
DOT
 62
     7
100
AcDbPolyline
 90
     3
 70
     0
 43
0.200000
 10
53.150000
 20
204.375000
 10
53.525000
 20
204.850000
 10
113.575000
 20
204.750000
  0
LWPOLYLINE
  5
4b8
100
AcDbEntity
  8
0
  6
DOT
 62
     7
100
AcDbPolyline
 90
    21
 70
     0
 43
0.200000
 10
53.650000
 20
204.725000
 10
53.625000
 20
204.725000
 10
53.425000
 20
201.825000
 10
53.225000
 20
200.700000
 10
52.350000
 20
200.650000
 10
51.675000
 20
201.125000
 10
49.200000
 20
201.050000
 10
43.800000
 20
200.700000
 10
40.550000
 20
201.275000
 10
38.925000
 20
202.125000
 10
38.950000
 20
203.100000
 10
39.150000
 20
203.725000
 10
39.500000
 20
204.675000
 10
40.650000
 20
205.000000
 10
43.525000
 20
205.250000
 10
47.050000
 20
205.225000
 10
50.225000
 20
204.650000
 10
51.225000
 20
204.825000
 10
52.150000
 20
205.150000
 10
52.525000
 20
205.275000
 10
53.525000
 20
204.850000
  0
LINE
  5
4e5
100
AcDbEntity
  8
0
370
    20
100
AcDbLine
 10
37.675000
 20
196.000000
 11
52.075000
 21
196.650000
  0
LWPOLYLINE
  5
4e8
100
AcDbEntity
  8
0
100
AcDbPolyline
 90
     3
 70
     0
 43
0.200000
 10
40.325000
 20
197.275000
 10
37.675000
 20
196.000000
 10
40.425000
 20
195.000000
  0
LWPOLYLINE
  5
4f1
100
AcDbEntity
  8
0
100
AcDbPolyline
 90
     3
 70
     0
 43
0.200000
 10
49.325000
 20
195.400000
 10
52.075000
 20
196.650000
 10
49.225000
 20
197.675000
  0
LINE
  5
4fa
100
AcDbEntity
  8
0
  6
DOT
 62
     7
370
    20
100
AcDbLine
 10
53.525000
 20
201.925000
 11
112.875000
 21
201.150000
  0
MTEXT
  5
4fd
100
AcDbEntity
  8
0
100
AcDbMText
 10
92.000000
 20
229.000000
 40
3.168750
 41
29.575000
 71
     1
 72
     5
  1
\fTimes New Roman|b1|i0|c0|p18;\T1.0200;1000\fＭＳ 明朝|b1|i0|c128|p17;\P\fTimes New Roman|b1|i0|c0|p18;830\fＭＳ 明朝|b1|i0|c128|p17;（公共型）
 44
0.966489
 73
     1
  7
BIGFONT
  0
LINE
  5
500
100
AcDbEntity
  8
0
370
    20
100
AcDbLine
 10
14.000000
 20
215.000000
 11
36.000000
 21
215.000000
  0
LWPOLYLINE
  5
503
100
AcDbEntity
  8
0
100
AcDbPolyline
 90
     3
 70
     0
 43
0.200000
 10
33.225000
 20
213.875000
 10
36.000000
 20
215.000000
 10
33.225000
 20
216.150000
  0
LWPOLYLINE
  5
50c
100
AcDbEntity
  8
0
100
AcDbPolyline
 90
     3
 70
     0
 43
0.200000
 10
16.750000
 20
216.150000
 10
14.000000
 20
215.000000
 10
16.750000
 20
213.875000
  0
MTEXT
  5
515
100
AcDbEntity
  8
0
100
AcDbMText
 10
22.000000
 20
223.000000
 40
4.225000
 41
12.675000
 71
     1
 72
     5
  1
\fTimes New Roman|b1|i0|c0|p18;\T0.9100;179
 44
0.798817
 73
     1
  7
BIGFONT
  0
LWPOLYLINE
  5
518
100
AcDbEntity
  8
0
100
AcDbPolyline
 90
     2
 70
     0
 43
0.200000
 10
49.925000
 20
158.900000
 10
172.000000
 20
158.900000
  0
LWPOLYLINE
  5
51f
100
AcDbEntity
  8
0
100
AcDbPolyline
 90
     2
 70
     0
 43
0.200000
 10
38.850000
 20
198.850000
 10
38.850000
 20
218.850000
  0
LWPOLYLINE
  5
526
100
AcDbEntity
  8
0
100
AcDbPolyline
 90
     2
 70
     0
 43
0.200000
 10
115.500000
 20
65.850000
 10
115.500000
 20
53.850000
  0
LWPOLYLINE
  5
52d
100
AcDbEntity
  8
0
100
AcDbPolyline
 90
     2
 70
     0
 43
0.200000
 10
148.800000
 20
66.225000
 10
148.800000
 20
54.225000
  0
LWPOLYLINE
  5
534
100
AcDbEntity
  8
0
100
AcDbPolyline
 90
     2
 70
     0
 43
0.200000
 10
138.000000
 20
75.000000
 10
158.000000
 20
75.000000
  0
LWPOLYLINE
  5
53b
100
AcDbEntity
  8
0
100
AcDbPolyline
 90
     2
 70
     0
 43
0.200000
 10
100.000000
 20
61.000000
 10
188.000000
 20
61.000000
  0
LWPOLYLINE
  5
542
100
AcDbEntity
  8
0
100
AcDbPolyline
 90
     2
 70
     0
 43
0.400000
 10
132.100000
 20
205.950000
 10
132.100000
 20
231.000000
  0
LWPOLYLINE
  5
549
100
AcDbEntity
  8
0
100
AcDbPolyline
 90
     2
 70
     0
 43
0.400000
 10
136.000000
 20
185.000000
 10
156.000000
 20
225.000000
  0
LWPOLYLINE
  5
550
100
AcDbEntity
  8
0
100
AcDbPolyline
 90
     2
 70
     0
 43
0.400000
 10
128.000000
 20
127.000000
 10
144.000000
 20
127.000000
  0
LWPOLYLINE
  5
557
100
AcDbEntity
  8
0
100
AcDbPolyline
 90
     2
 70
     0
 43
0.400000
 10
130.000000
 20
73.000000
 10
96.000000
 20
107.000000
  0
MTEXT
  5
55e
100
AcDbEntity
  8
0
100
AcDbMText
 10
130.000000
 20
241.000000
 40
3.168750
 41
46.475000
 71
     1
 72
     5
  1
\fＭＳ 明朝|b0|i0|c128|p17;\T1.0200;①カーバー\P　材質：プラスチック
 44
0.966489
 73
     1
  7
BIGFONT
  0
MTEXT
  5
561
100
AcDbEntity
  8
0
100
AcDbMText
 10
156.200000
 20
227.425000
 40
3.168750
 41
33.800000
 71
     1
 72
     5
  1
\fＭＳ 明朝|b0|i0|c128|p17;\T1.0200;②アッパーボディ\P　材質：アルミ\P
 44
0.966489
 73
     1
  7
BIGFONT
  0
LWPOLYLINE
  5
564
100
AcDbEntity
  8
0
100
AcDbPolyline
 90
     2
 70
     0
 43
0.400000
 10
86.000000
 20
181.000000
 10
68.000000
 20
143.000000
  0
MTEXT
  5
56b
100
AcDbEntity
  8
0
100
AcDbMText
 10
54.000000
 20
141.000000
 40
3.168750
 41
54.925000
 71
     1
 72
     5
  1
\fＭＳ 明朝|b0|i0|c128|p17;\T1.0200;③ハンドル\P材質　ステンレス
 44
0.966489
 73
     1
  7
BIGFONT
  0
MTEXT
  5
56e
100
AcDbEntity
  8
0
100
AcDbMText
 10
62.000000
 20
109.000000
 40
3.168750
 41
33.800000
 71
     1
 72
     5
  1
\fＭＳ 明朝|b0|i0|c128|p17;\T1.0200;④ベースプレート\Pアルミ
 44
0.966489
 73
     1
  7
BIGFONT
  0
MTEXT
  5
571
100
AcDbEntity
  8
0
100
AcDbMText
 10
146.000000
 20
129.000000
 40
3.168750
 41
50.700000
 71
     1
 72
     5
  1
\fＭＳ 明朝|b0|i0|c128|p17;\T1.0200;⑤ボディパイプ\P材質　ステンレス
 44
0.966489
 73
     1
  7
BIGFONT
  0
ENDSEC
  0
SECTION
  2
OBJECTS
  0
DICTIONARY
  5
57c
100
AcDbDictionary
281
     1
  3
ACAD_COLOR
350
57d
  3
ACAD_GROUP
350
57e
  3
ACAD_LAYOUT
350
57f
  3
ACAD_MATERIAL
350
580
  3
ACAD_MLINESTYLE
350
581
  3
CONTENTDICTIONARY
350
587
  0
DICTIONARY
  5
57d
102
{ACAD_REACTORS
330
57c
102
}
330
57c
100
AcDbDictionary
281
     1
  0
DICTIONARY
  5
57e
102
{ACAD_REACTORS
330
57c
102
}
330
57c
100
AcDbDictionary
281
     1
  3
Layout1
350
588
  3
Layout2
350
589
  3
Model
350
5cc
  0
DICTIONARY
  5
57f
102
{ACAD_REACTORS
330
57c
102
}
330
57c
100
AcDbDictionary
281
     1
  0
DICTIONARY
  5
580
102
{ACAD_REACTORS
330
57c
102
}
330
57c
100
AcDbDictionary
281
     1
  0
DICTIONARY
  5
581
102
{ACAD_REACTORS
330
57c
102
}
330
57c
100
AcDbDictionary
281
     1
  3
Standard
350
58a
  0
DICTIONARY
  5
582
102
{ACAD_REACTORS
330
57c
102
}
330
57c
100
AcDbDictionary
281
     1
  0
ACDBDICTIONARYWDFLT
  5
583
102
{ACAD_REACTORS
330
57c
102
}
330
57c
100
AcDbDictionary
281
     1
  3
Normal
350
5cd
100
AcDbDictionaryWithDefault
340
5cd
  0
DICTIONARY
  5
584
102
{ACAD_REACTORS
330
57c
102
}
330
57c
100
AcDbDictionary
281
     1
  3
Standard
350
5ce
  0
DICTIONARY
  5
585
102
{ACAD_REACTORS
330
57c
102
}
330
57c
100
AcDbDictionary
281
     1
  3
CEPSNTYPE
350
58c
  3
FINGERPRINTGUID
350
58d
  3
HYPERLINKBASE
350
58e
  3
INSUNITS
350
58f
  3
LAYOUTDICT
350
590
  3
LWETCUNION
350
591
  3
PLOTSETDICT
350
592
  3
PLOTSTYLNAMDICT
350
593
  3
PSVPSCALE
350
594
  3
PUCSBASE
350
595
  3
PUCSORGBACK
350
596
  3
PUCSORGBOTTOM
350
597
  3
PUCSORGFRONT
350
598
  3
PUCSORGLEFT
350
599
  3
PUCSORGRIGHT
350
59a
  3
PUCSORGTOP
350
59b
  3
PUCSORTHOREF
350
59c
  3
PUCSORTHOVIEW
350
59d
  3
STYLESHEET
350
59e
  3
TSTACKALIGN
350
59f
  3
TSTACKSIZE
350
5a0
  3
UCSBASE
350
5a1
  3
UCSORGBACK
350
5a2
  3
UCSORGBOTTOM
350
5a3
  3
UCSORGFRONT
350
5a4
  3
UCSORGLEFT
350
5a5
  3
UCSORGRIGHT
350
5a6
  3
UCSORGTOP
350
5a7
  3
UCSORTHOREF
350
5a8
  3
UCSORTHOVIEW
350
5a9
  3
VERSIONGUID
350
5aa
  0
DICTIONARY
  5
586
102
{ACAD_REACTORS
330
57c
102
}
330
57c
100
AcDbDictionary
281
     1
  3
CTABLESTYLE
350
5ab
  3
DIMASSOC
350
5ac
  3
HIDETEXT
350
5ad
  3
PROJECTNAME
350
5ae
  0
LAYOUT
  5
587
102
{ACAD_XDICTIONARY
360
892
102
}
102
{ACAD_REACTORS
330
57d
102
}
330
57d
100
AcDbPlotSettings
  1

  2

  4

  6

 40
0.000000
 41
0.000000
 42
0.000000
 43
0.000000
 44
0.000000
 45
0.000000
 46
0.000000
 47
0.000000
 48
0.000000
 49
0.000000
140
0.000000
141
0.000000
142
1.000000
143
1.000000
 70
   688
 72
     0
 73
     0
 74
     5
  7

 75
    16
147
1.000000
148
0.000000
149
0.000000
100
AcDbLayout
  1
Layout1
 70
     1
 71
     1
 10
0.000000
 20
0.000000
 11
190.000000
 21
257.000000
 12
0.000000
 22
0.000000
 32
0.000000
 14
100000000000000000000.000000
 24
100000000000000000000.000000
 34
100000000000000000000.000000
 15
-100000000000000000000.000000
 25
-100000000000000000000.000000
 35
-100000000000000000000.000000
146
0.000000
 13
0.000000
 23
0.000000
 33
0.000000
 16
1.000000
 26
0.000000
 36
0.000000
 17
0.000000
 27
1.000000
 37
0.000000
 76
     0
330
581
  0
LAYOUT
  5
588
102
{ACAD_XDICTIONARY
360
894
102
}
102
{ACAD_REACTORS
330
57d
102
}
330
57d
100
AcDbPlotSettings
  1

  2

  4

  6

 40
0.000000
 41
0.000000
 42
0.000000
 43
0.000000
 44
0.000000
 45
0.000000
 46
0.000000
 47
0.000000
 48
0.000000
 49
0.000000
140
0.000000
141
0.000000
142
1.000000
143
1.000000
 70
   688
 72
     0
 73
     0
 74
     5
  7

 75
    16
147
1.000000
148
0.000000
149
0.000000
100
AcDbLayout
  1
Layout2
 70
     1
 71
     2
 10
0.000000
 20
0.000000
 11
190.000000
 21
257.000000
 12
0.000000
 22
0.000000
 32
0.000000
 14
0.000000
 24
0.000000
 34
0.000000
 15
0.000000
 25
0.000000
 35
0.000000
146
0.000000
 13
0.000000
 23
0.000000
 33
0.000000
 16
1.000000
 26
0.000000
 36
0.000000
 17
0.000000
 27
1.000000
 37
0.000000
 76
     0
330
588
  0
LAYOUT
  5
589
102
{ACAD_XDICTIONARY
360
896
102
}
102
{ACAD_REACTORS
330
57d
102
}
330
57d
100
AcDbPlotSettings
  1

  2

  4

  6

 40
0.000000
 41
0.000000
 42
0.000000
 43
0.000000
 44
0.000000
 45
0.000000
 46
0.000000
 47
0.000000
 48
0.000000
 49
0.000000
140
0.000000
141
0.000000
142
1.000000
143
1.000000
 70
  1712
 72
     0
 73
     0
 74
     0
  7

 75
    16
147
1.000000
148
0.000000
149
0.000000
100
AcDbLayout
  1
Model
 70
     1
 71
     0
 10
0.000000
 20
0.000000
 11
190.000000
 21
257.000000
 12
0.000000
 22
0.000000
 32
0.000000
 14
0.000000
 24
0.000000
 34
0.000000
 15
0.000000
 25
0.000000
 35
0.000000
146
0.000000
 13
0.000000
 23
0.000000
 33
0.000000
 16
1.000000
 26
0.000000
 36
0.000000
 17
0.000000
 27
1.000000
 37
0.000000
 76
     0
330
589
  0
MLINESTYLE
  5
58a
102
{ACAD_REACTORS
330
589
102
}
330
589
100
AcDbMlineStyle
  2
STANDARD
 70
     0
  3
 
 62
   256
 51
90.000000
 52
90.000000
 71
     2
 49
0.500000
 62
   256
  6
BYLAYER
 49
-0.500000
 62
   256
  6
BYLAYER
  0
ACDBPLACEHOLDER
  5
58b
102
{ACAD_REACTORS
330
58a
102
}
330
58a
  0
DICTIONARY
  5
892
100
AcDbDictionary
280
     1
281
     1
  3
ACAD_XREC_ROUNDTRIP
360
893
  0
DICTIONARY
  5
894
100
AcDbDictionary
280
     1
281
     1
  3
ACAD_XREC_ROUNDTRIP
360
895
  0
DICTIONARY
  5
896
100
AcDbDictionary
280
     1
281
     1
  3
ACAD_XREC_ROUNDTRIP
360
897
  0
XRECORD
  5
893
102
{ACAD_REACTORS
330
892
102
}
330
892
100
AcDbXrecord
280
     1
102
SHADEPLOT
 70
     0
102
SHADEPLOTRESLEVEL
 70
     2
102
SHADEPLOTCUSTOMDPI
 70
   300
  0
XRECORD
  5
895
102
{ACAD_REACTORS
330
894
102
}
330
894
100
AcDbXrecord
280
     1
102
SHADEPLOT
 70
     0
102
SHADEPLOTRESLEVEL
 70
     2
102
SHADEPLOTCUSTOMDPI
 70
   300
  0
XRECORD
  5
897
102
{ACAD_REACTORS
330
896
102
}
330
896
100
AcDbXrecord
280
     1
102
SHADEPLOT
 70
     0
102
SHADEPLOTRESLEVEL
 70
     2
102
SHADEPLOTCUSTOMDPI
 70
   300
  0
ENDSEC
  0
EOF
