  0
SECTION
  2
HEADER
  9
$ACADVER
  1
AC1018
  9
$ACADMAINTVER
 70
     0
  9
$DWGCODEPAGE
  3
ANSI_932
  9
$INSBASE
 10
0.000000
 20
0.000000
 30
0.000000
  9
$EXTMIN
 10
0.000000
 20
0.000000
 30
0.000000
  9
$EXTMAX
 10
190.000000
 20
257.000000
 30
0.000000
  9
$LIMMIN
 10
0.000000
 20
0.000000
  9
$LIMMAX
 10
190.000000
 20
257.000000
  9
$ORTHOMODE
 70
     0
  9
$REGENMODE
 70
     1
  9
$FILLMODE
 70
     1
  9
$QTEXTMODE
 70
     0
  9
$MIRRTEXT
 70
     1
  9
$LTSCALE
 40
1.000000
  9
$ATTMODE
 70
     1
  9
$TEXTSIZE
 40
2.500000
  9
$TRACEWID
 40
1.000000
  9
$TEXTSTYLE
  7
BIGFONT
  9
$CLAYER
  8
0
  9
$CELTYPE
  6
BYLAYER
  9
$CECOLOR
 62
   256
  9
$CELTSCALE
 40
1.000000
  9
$DISPSILH
 70
     0
  9
$DIMSCALE
 40
1.000000
  9
$DIMASZ
 40
2.500000
  9
$DIMEXO
 40
0.625000
  9
$DIMDLI
 40
3.750000
  9
$DIMRND
 40
0.000000
  9
$DIMDLE
 40
0.000000
  9
$DIMEXE
 40
1.250000
  9
$DIMTP
 40
0.000000
  9
$DIMTM
 40
0.000000
  9
$DIMTXT
 40
2.500000
  9
$DIMCEN
 40
2.500000
  9
$DIMTSZ
 40
0.000000
  9
$DIMTOL
 70
     0
  9
$DIMLIM
 70
     0
  9
$DIMTIH
 70
     0
  9
$DIMTOH
 70
     0
  9
$DIMSE1
 70
     0
  9
$DIMSE2
 70
     0
  9
$DIMTAD
 70
     1
  9
$DIMZIN
 70
     8
  9
$DIMBLK
  1

  9
$DIMASO
 70
     1
  9
$DIMSHO
 70
     1
  9
$DIMPOST
  1

  9
$DIMAPOST
  1

  9
$DIMALT
 70
     0
  9
$DIMALTD
 70
     4
  9
$DIMALTF
 40
0.039400
  9
$DIMLFAC
 40
1.000000
  9
$DIMTOFL
 70
     1
  9
$DIMTVP
 40
0.000000
  9
$DIMTIX
 70
     0
  9
$DIMSOXD
 70
     0
  9
$DIMSAH
 70
     0
  9
$DIMBLK1
  1

  9
$DIMBLK2
  1

  9
$DIMSTYLE
  2
STANDARD
  9
$DIMCLRD
 70
     0
  9
$DIMCLRE
 70
     0
  9
$DIMCLRT
 70
     0
  9
$DIMTFAC
 40
1.000000
  9
$DIMGAP
 40
0.625000
  9
$DIMJUST
 70
     0
  9
$DIMSD1
 70
     0
  9
$DIMSD2
 70
     0
  9
$DIMTOLJ
 70
     1
  9
$DIMTZIN
 70
     0
  9
$DIMALTZ
 70
     0
  9
$DIMALTTZ
 70
     0
  9
$DIMUPT
 70
     0
  9
$DIMDEC
 70
     4
  9
$DIMTDEC
 70
     4
  9
$DIMALTU
 70
     8
  9
$DIMALTTD
 70
     4
  9
$DIMTXSTY
  7
STANDARD
  9
$DIMAUNIT
 70
     0
  9
$DIMADEC
 70
     0
  9
$DIMALTRND
 40
0.000000
  9
$DIMAZIN
 70
     0
  9
$DIMDSEP
 70
    46
  9
$DIMATFIT
 70
     3
  9
$DIMFRAC
 70
     0
  9
$DIMLDRBLK
  1

  9
$DIMLUNIT
 70
     2
  9
$DIMLWD
 70
-2
  9
$DIMLWE
 70
-2
  9
$DIMTMOVE
 70
     0
  9
$LUNITS
 70
     2
  9
$LUPREC
 70
     4
  9
$AXISMODE
 70
     0
  9
$SKETCHINC
 40
1.000000
  9
$FILLETRAD
 40
10.000000
  9
$AUNITS
 70
     0
  9
$AUPREC
 70
     0
  9
$MENU
  1
acad
  9
$ELEVATION
 40
0.000000
  9
$PELEVATION
 40
0.000000
  9
$THICKNESS
 40
0.000000
  9
$LIMCHECK
 70
     0
  9
$BLIPMODE
 70
     0
  9
$CHAMFERA
 40
10.000000
  9
$CHAMFERB
 40
10.000000
  9
$CHAMFERC
 40
20.000000
  9
$CHAMFERD
 40
0.000000
  9
$SKPOLY
 70
     0
  9
$TDCREATE
 40
2447851.677998
  9
$TDUCREATE
 40
2447851.677998
  9
$TDUPDATE
 40
2447851.677998
  9
$TDUUPDATE
 40
2447851.677998
  9
$TDINDWG
 40
0.000000
  9
$TDUSRTIMER
 40
0.000000
  9
$USRTIMER
 70
     1
  9
$ANGBASE
 50
0.000000
  9
$ANGDIR
 70
     0
  9
$PDMODE
 70
     0
  9
$PDSIZE
 40
0.000000
  9
$PLINEWID
 40
0.000000
  9
$SPLFRAME
 70
     0
  9
$SPLINETYPE
 70
     6
  9
$SPLINESEGS
 70
     8
  9
$HANDSEED
  5
FFFFFFF
  9
$SURFTAB1
 70
     6
  9
$SURFTAB2
 70
     6
  9
$SURFTYPE
 70
     6
  9
$SURFU
 70
     6
  9
$SURFV
 70
     6
  9
$UCSBASE
  2

  9
$UCSNAME
  2

  9
$UCSORG
 10
0.000000
 20
0.000000
 30
0.000000
  9
$UCSXDIR
 10
1.000000
 20
0.000000
 30
0.000000
  9
$UCSYDIR
 10
0.000000
 20
1.000000
 30
0.000000
  9
$UCSORTHOREF
  2

  9
$UCSORTHOVIEW
 70
     0
  9
$UCSORGTOP
 10
0.000000
 20
0.000000
 30
0.000000
  9
$UCSORGBOTTOM
 10
0.000000
 20
0.000000
 30
0.000000
  9
$UCSORGLEFT
 10
0.000000
 20
0.000000
 30
0.000000
  9
$UCSORGRIGHT
 10
0.000000
 20
0.000000
 30
0.000000
  9
$UCSORGFRONT
 10
0.000000
 20
0.000000
 30
0.000000
  9
$UCSORGBACK
 10
0.000000
 20
0.000000
 30
0.000000
  9
$PUCSBASE
  2

  9
$PUCSNAME
  2

  9
$PUCSORG
 10
0.000000
 20
0.000000
 30
0.000000
  9
$PUCSXDIR
 10
1.000000
 20
0.000000
 30
0.000000
  9
$PUCSYDIR
 10
0.000000
 20
1.000000
 30
0.000000
  9
$PUCSORTHOREF
  2

  9
$PUCSORTHOVIEW
 70
     0
  9
$PUCSORGTOP
 10
0.000000
 20
0.000000
 30
0.000000
  9
$PUCSORGBOTTOM
 10
0.000000
 20
0.000000
 30
0.000000
  9
$PUCSORGLEFT
 10
0.000000
 20
0.000000
 30
0.000000
  9
$PUCSORGRIGHT
 10
0.000000
 20
0.000000
 30
0.000000
  9
$PUCSORGFRONT
 10
0.000000
 20
0.000000
 30
0.000000
  9
$PUCSORGBACK
 10
0.000000
 20
0.000000
 30
0.000000
  9
$USERI1
 70
     0
  9
$USERI2
 70
     0
  9
$USERI3
 70
     0
  9
$USERI4
 70
     0
  9
$USERI5
 70
     0
  9
$USERR1
 40
0.000000
  9
$USERR2
 40
0.000000
  9
$USERR3
 40
0.000000
  9
$USERR4
 40
0.000000
  9
$USERR5
 40
0.000000
  9
$WORLDVIEW
 70
     1
  9
$SHADEDGE
 70
     3
  9
$SHADEDIF
 70
    70
  9
$TILEMODE
 70
     1
  9
$MAXACTVP
 70
    48
  9
$PINSBASE
 10
0.000000
 20
0.000000
 30
0.000000
  9
$PLIMCHECK
 70
     0
  9
$PEXTMIN
 10
100000000000000000000.000000
 20
100000000000000000000.000000
 30
100000000000000000000.000000
  9
$PEXTMAX
 10
-100000000000000000000.000000
 20
-100000000000000000000.000000
 30
-100000000000000000000.000000
  9
$PLIMMIN
 10
0.000000
 20
0.000000
  9
$PLIMMAX
 10
190.000000
 20
257.000000
  9
$UNITMODE
 70
     0
  9
$VISRETAIN
 70
     1
  9
$PLINEGEN
 70
     0
  9
$PSLTSCALE
 70
     1
  9
$TREEDEPTH
 70
  3020
  9
$CMLSTYLE
  2
STANDARD
  9
$CMLJUST
 70
     0
  9
$CMLSCALE
 40
20.000000
  9
$PROXYGRAPHICS
 70
     1
  9
$MEASUREMENT
 70
     1
  9
$CELWEIGHT
370
-1
  9
$ENDCAPS
280
     0
  9
$JOINSTYLE
280
     0
  9
$LWDISPLAY
290
     1
  9
$INSUNITS
 70
     0
  9
$HYPERLINKBASE
  1

  9
$STYLESHEET
  1

  9
$XEDIT
290
     1
  9
$CEPSNTYPE
380
     0
  9
$PSTYLEMODE
290
     1
  9
$FINGERPRINTGUID
  2
{01801163-5BC0-459E-B9C7-2188C09ED432}
  9
$VERSIONGUID
  2
{7F326DDD-95DF-42AD-9861-A0CD9F0961F2}
  9
$EXTNAMES
290
     1
  9
$PSVPSCALE
 40
0.0
  9
$OLESTARTUP
290
     0
  9
$SORTENTS
280
   127
  9
$INDEXCTL
280
     0
  9
$HIDETEXT
280
     1
  9
$XCLIPFRAME
290
     0
  9
$HALOGAP
280
     0
  9
$OBSCOLOR
 70
   257
  9
$OBSLTYPE
280
     0
  9
$INTERSECTIONDISPLAY
280
     0
  9
$INTERSECTIONCOLOR
 70
   257
  9
$DIMASSOC
280
     2
  9
$PROJECTNAME
  1

  0
ENDSEC
  0
SECTION
  2
TABLES
  0
TABLE
  2
VPORT
  5
a2
100
AcDbSymbolTable
 70
     2
  0
VPORT
  5
a5
100
AcDbSymbolTableRecord
100
AcDbViewportTableRecord
  2
*ACTIVE
 70
     0
 10
0.000000
 20
0.000000
 11
1.000000
 21
1.000000
 12
300.000000
 22
200.000000
 13
0.000000
 23
0.000000
 14
10.000000
 24
10.000000
 15
10.000000
 25
10.000000
 16
0.000000
 26
0.000000
 36
1.000000
 17
0.000000
 27
0.000000
 37
0.000000
 40
300.000000
 41
1.600432
 42
50.000000
 43
0.000000
 44
0.000000
 50
0.000000
 51
0.000000
 71
     0
 72
   100
 73
     1
 74
     1
 75
     0
 76
     0
 77
     0
 78
     0
  0
ENDTAB
  0
TABLE
  2
LTYPE
  5
a8
100
AcDbSymbolTable
 70
    11
  0
LTYPE
  5
ab
100
AcDbSymbolTableRecord
100
AcDbLinetypeTableRecord
  2
BYBLOCK
 70
    64
  3
BYBLOCK
 72
    65
 73
     0
 40
0.000000
  0
LTYPE
  5
ae
100
AcDbSymbolTableRecord
100
AcDbLinetypeTableRecord
  2
BYLAYER
 70
    64
  3
BYLAYER
 72
    65
 73
     0
 40
0.000000
  0
LTYPE
  5
b1
100
AcDbSymbolTableRecord
100
AcDbLinetypeTableRecord
  2
CONTINUOUS
 70
    64
  3
実線
 72
    65
 73
     0
 40
0.000000
  0
LTYPE
  5
b4
100
AcDbSymbolTableRecord
100
AcDbLinetypeTableRecord
  2
DASHED
 70
    64
  3
__ __ __ __ __ __ __ __ __ __ __ __ __ __ __
 72
    65
 73
     2
 40
0.750000
 49
0.500000
 74
     0
 49
-0.250000
 74
     0
  0
LTYPE
  5
b7
100
AcDbSymbolTableRecord
100
AcDbLinetypeTableRecord
  2
HIDDEN
 70
    64
  3
_ _ _ _ _ _ _ _ _ _ _ _ _ _ _ _ _ _ _ _ _ _ _
 72
    65
 73
     2
 40
0.375000
 49
0.250000
 74
     0
 49
-0.125000
 74
     0
  0
LTYPE
  5
ba
100
AcDbSymbolTableRecord
100
AcDbLinetypeTableRecord
  2
CENTER
 70
    64
  3
____ _ ____ _ ____ _ ____ _ ____ _ ____ _ ____
 72
    65
 73
     4
 40
2.000000
 49
1.250000
 74
     0
 49
-0.250000
 74
     0
 49
0.250000
 74
     0
 49
-0.250000
 74
     0
  0
LTYPE
  5
bd
100
AcDbSymbolTableRecord
100
AcDbLinetypeTableRecord
  2
PHANTOM
 70
    64
  3
_____ _ _ _____ _ _ _____ _ _ _____ _ _ ____
 72
    65
 73
     6
 40
2.500000
 49
1.250000
 74
     0
 49
-0.250000
 74
     0
 49
0.250000
 74
     0
 49
-0.250000
 74
     0
 49
0.250000
 74
     0
 49
-0.250000
 74
     0
  0
LTYPE
  5
c0
100
AcDbSymbolTableRecord
100
AcDbLinetypeTableRecord
  2
DOT
 70
    64
  3
...............................................
 72
    65
 73
     2
 40
0.250000
 49
0.000000
 74
     0
 49
-0.250000
 74
     0
  0
LTYPE
  5
c3
100
AcDbSymbolTableRecord
100
AcDbLinetypeTableRecord
  2
DASHDOT
 70
    64
  3
__ . __ . __ . __ . __ . __ . __ . __ . __ . __
 72
    65
 73
     4
 40
1.000000
 49
0.500000
 74
     0
 49
-0.250000
 74
     0
 49
0.000000
 74
     0
 49
-0.250000
 74
     0
  0
LTYPE
  5
c6
100
AcDbSymbolTableRecord
100
AcDbLinetypeTableRecord
  2
BORDER
 70
    64
  3
__ __ . __ __ . __ __ . __ __ . __ __ . __ __
 72
    65
 73
     6
 40
1.750000
 49
0.500000
 74
     0
 49
-0.250000
 74
     0
 49
0.500000
 74
     0
 49
-0.250000
 74
     0
 49
0.000000
 74
     0
 49
-0.250000
 74
     0
  0
LTYPE
  5
c9
100
AcDbSymbolTableRecord
100
AcDbLinetypeTableRecord
  2
DIVIDE
 70
    64
  3
__ . . __ . . __ . . __ . . __ . . __ . . __
 72
    65
 73
     6
 40
1.250000
 49
0.500000
 74
     0
 49
-0.250000
 74
     0
 49
0.000000
 74
     0
 49
-0.250000
 74
     0
 49
0.000000
 74
     0
 49
-0.250000
 74
     0
  0
ENDTAB
  0
TABLE
  2
LAYER
  5
cc
100
AcDbSymbolTable
 70
     2
  0
LAYER
  5
cf
100
AcDbSymbolTableRecord
100
AcDbLayerTableRecord
  2
0
 70
     0
 62
     7
  6
CONTINUOUS
370
 65533
390
	F
  0
LAYER
  5
d2
100
AcDbSymbolTableRecord
100
AcDbLayerTableRecord
  2
B
 70
     0
 62
     7
  6
CONTINUOUS
370
 65533
390
	F
  0
LAYER
  5
d5
100
AcDbSymbolTableRecord
100
AcDbLayerTableRecord
  2
C
 70
     0
 62
     7
  6
CONTINUOUS
370
 65533
390
	F
  0
LAYER
  5
d8
100
AcDbSymbolTableRecord
100
AcDbLayerTableRecord
  2
D
 70
     0
 62
     7
  6
CONTINUOUS
370
 65533
390
	F
  0
LAYER
  5
db
100
AcDbSymbolTableRecord
100
AcDbLayerTableRecord
  2
E
 70
     0
 62
     7
  6
CONTINUOUS
370
 65533
390
	F
  0
LAYER
  5
de
100
AcDbSymbolTableRecord
100
AcDbLayerTableRecord
  2
F
 70
     0
 62
     7
  6
CONTINUOUS
370
 65533
390
	F
  0
LAYER
  5
e1
100
AcDbSymbolTableRecord
100
AcDbLayerTableRecord
  2
G
 70
     0
 62
     7
  6
CONTINUOUS
370
 65533
390
	F
  0
LAYER
  5
e4
100
AcDbSymbolTableRecord
100
AcDbLayerTableRecord
  2
H
 70
     0
 62
     7
  6
CONTINUOUS
370
 65533
390
	F
  0
LAYER
  5
e7
100
AcDbSymbolTableRecord
100
AcDbLayerTableRecord
  2
I
 70
     0
 62
     7
  6
CONTINUOUS
370
 65533
390
	F
  0
LAYER
  5
ea
100
AcDbSymbolTableRecord
100
AcDbLayerTableRecord
  2
J
 70
     0
 62
     7
  6
CONTINUOUS
370
 65533
390
	F
  0
LAYER
  5
ed
100
AcDbSymbolTableRecord
100
AcDbLayerTableRecord
  2
K
 70
     0
 62
     7
  6
CONTINUOUS
370
 65533
390
	F
  0
LAYER
  5
f0
100
AcDbSymbolTableRecord
100
AcDbLayerTableRecord
  2
L
 70
     0
 62
     7
  6
CONTINUOUS
370
 65533
390
	F
  0
LAYER
  5
f3
100
AcDbSymbolTableRecord
100
AcDbLayerTableRecord
  2
M
 70
     0
 62
     7
  6
CONTINUOUS
370
 65533
390
	F
  0
LAYER
  5
f6
100
AcDbSymbolTableRecord
100
AcDbLayerTableRecord
  2
N
 70
     0
 62
     7
  6
CONTINUOUS
370
 65533
390
	F
  0
ENDTAB
  0
TABLE
  2
STYLE
  5
f9
100
AcDbSymbolTable
 70
     2
  0
STYLE
  5
fc
100
AcDbSymbolTableRecord
100
AcDbTextStyleTableRecord
  2
STANDARD
 70
     0
 40
0.000000
 41
0.500000
 50
0.000000
 71
     0
 42
0.300000
  3
txt
  4

  0
STYLE
  5
ff
100
AcDbSymbolTableRecord
100
AcDbTextStyleTableRecord
  2
BIGFONT
 70
    64
 40
0.000000
 41
1.000000
 50
0.000000
 71
     0
 42
0.200000
  3

  4
bigfont
  0
ENDTAB
  0
TABLE
  2
VIEW
  5
102
100
AcDbSymbolTable
 70
     0
  0
ENDTAB
  0
TABLE
  2
UCS
  5
105
100
AcDbSymbolTable
 70
     0
  0
ENDTAB
  0
TABLE
  2
APPID
  5
108
100
AcDbSymbolTable
 70
     3
  0
APPID
  5
10b
100
AcDbSymbolTableRecord
100
AcDbRegAppTableRecord
  2
ACAD
 70
     0
  0
APPID
  5
10e
100
AcDbSymbolTableRecord
100
AcDbRegAppTableRecord
  2
CONTENTTABDATA
 70
     0
  0
APPID
  5
111
100
AcDbSymbolTableRecord
100
AcDbRegAppTableRecord
  2
CONTENTCURRENTTAB
 70
     0
  0
ENDTAB
  0
TABLE
  2
DIMSTYLE
  5
114
330
     0
100
AcDbSymbolTable
 70
     2
100
AcDbDimStyleTable
 70
     1
  0
DIMSTYLE
105
117
100
AcDbSymbolTableRecord
100
AcDbDimStyleTableRecord
  2
STANDARD
 70
     0
  3

  4

  5

  6

  7

 40
1.000000
 41
0.180000
 42
0.062500
 43
0.380000
 44
0.180000
 45
0.000000
 46
0.000000
 47
0.000000
 48
0.000000
140
0.180000
141
0.090000
142
0.000000
143
25.400000
144
1.000000
145
0.000000
146
1.000000
147
0.090000
 71
     0
 72
     0
 73
     1
 74
     1
 75
     0
 76
     0
 77
     0
 78
     0
170
     0
171
     2
172
     0
173
     0
174
     0
175
     0
176
     0
177
     0
178
     0
270
     2
271
     4
272
     4
273
     2
274
     2
340
fc
275
     0
280
     0
281
     0
282
     0
283
     1
284
     0
285
     0
286
     0
287
     3
288
     0
  0
ENDTAB
  0
TABLE
  2
BLOCK_RECORD
  5
11a
100
AcDbSymbolTable
 70
     0
  0
BLOCK_RECORD
  5
11d
100
AcDbSymbolTableRecord
100
AcDbBlockTableRecord
  2
*MODEL_SPACE
  0
BLOCK_RECORD
  5
120
100
AcDbSymbolTableRecord
100
AcDbBlockTableRecord
  2
*PAPER_SPACE
  0
ENDTAB
  0
ENDSEC
  0
SECTION
  2
BLOCKS
  0
BLOCK
  5
123
330
124
100
AcDbEntity
  8
0
100
AcDbBlockBegin
  2
*Model_Space
 70
     0
 10
0.000000
 20
0.000000
 30
0.000000
  3
*Model_Space
  1
 
  0
ENDBLK
  5
126
330
124
100
AcDbEntity
  8
0
100
AcDbBlockEnd
  0
BLOCK
  5
129
330
12a
100
AcDbEntity
 67
     1
  8
0
100
AcDbBlockBegin
  2
*Paper_Space
 70
     0
 10
0.000000
 20
0.000000
 30
0.000000
  3
*Paper_Space
  1
 
  0
ENDBLK
  5
12c
330
12d
100
AcDbEntity
 67
     1
  8
0
100
AcDbBlockEnd
  0
ENDSEC
  0
SECTION
  2
ENTITIES
  0
LWPOLYLINE
  5
12f
100
AcDbEntity
  8
0
100
AcDbPolyline
 90
     4
 70
     1
 43
0.200000
 10
68.050000
 20
186.000000
 10
68.050000
 20
191.000000
 10
74.250000
 20
191.000000
 10
74.250000
 20
186.000000
  0
LWPOLYLINE
  5
13a
100
AcDbEntity
  8
0
100
AcDbPolyline
 90
     4
 70
     1
 43
0.200000
 10
68.650000
 20
191.000000
 10
73.650000
 20
191.000000
 10
73.650000
 20
91.000000
 10
68.650000
 20
91.000000
  0
LWPOLYLINE
  5
145
100
AcDbEntity
  8
0
100
AcDbPolyline
 90
     2
 70
     0
 43
0.200000
 10
68.600000
 20
91.300000
 10
73.775000
 20
91.575000
  0
LWPOLYLINE
  5
14c
100
AcDbEntity
  8
0
100
AcDbPolyline
 90
     2
 70
     0
 43
0.200000
 10
68.600000
 20
91.700000
 10
73.775000
 20
91.975000
  0
LWPOLYLINE
  5
153
100
AcDbEntity
  8
0
100
AcDbPolyline
 90
     2
 70
     0
 43
0.200000
 10
68.750000
 20
92.050000
 10
73.525000
 20
92.325000
  0
LWPOLYLINE
  5
15a
100
AcDbEntity
  8
0
100
AcDbPolyline
 90
     2
 70
     0
 43
0.200000
 10
68.750000
 20
92.325000
 10
73.525000
 20
92.600000
  0
LINE
  5
161
100
AcDbEntity
  8
0
370
    20
100
AcDbLine
 10
77.950000
 20
191.000000
 11
77.950000
 21
91.000000
  0
LWPOLYLINE
  5
164
100
AcDbEntity
  8
0
100
AcDbPolyline
 90
     3
 70
     0
 43
0.200000
 10
76.800000
 20
93.775000
 10
77.950000
 20
91.000000
 10
79.075000
 20
93.775000
  0
LWPOLYLINE
  5
16d
100
AcDbEntity
  8
0
100
AcDbPolyline
 90
     3
 70
     0
 43
0.200000
 10
79.075000
 20
188.250000
 10
77.950000
 20
191.000000
 10
76.800000
 20
188.250000
  0
MTEXT
  5
176
100
AcDbEntity
  8
0
100
AcDbMText
 10
83.950000
 20
162.875000
 40
3.168750
 41
50.700000
 71
     1
 72
     5
  1
\fTimes New Roman|b1|i0|c0|p18;\T1.0200;525\fＭＳ 明朝|b1|i0|c128|p17;（接続時\fTimes New Roman|b1|i0|c0|p18;500\fＭＳ 明朝|b1|i0|c128|p17;）
 44
0.966489
 73
     1
  7
BIGFONT
  0
MTEXT
  5
179
100
AcDbEntity
  8
0
100
AcDbMText
 10
83.950000
 20
157.000000
 40
3.168750
 41
109.850000
 71
     1
 72
     5
  1
\fTimes New Roman|b1|i0|c0|p18;\T1.0200;1025\fＭＳ 明朝|b1|i0|c128|p17;（接続時\fTimes New Roman|b1|i0|c0|p18;1000\fＭＳ 明朝|b1|i0|c128|p17;）標準で２本付属\P
 44
0.966489
 73
     1
  7
BIGFONT
  0
MTEXT
  5
17c
100
AcDbEntity
  8
0
100
AcDbMText
 10
83.950000
 20
151.000000
 40
3.168750
 41
38.025000
 71
     1
 72
     5
  1
\fTimes New Roman|b1|i0|c0|p18;\T1.0200;3025\fＭＳ 明朝|b1|i0|c128|p17;（接続時\fTimes New Roman|b1|i0|c0|p18;3000\fＭＳ 明朝|b1|i0|c128|p17;）
 44
0.966489
 73
     1
  7
BIGFONT
  0
MTEXT
  5
17f
100
AcDbEntity
  8
0
100
AcDbMText
 10
71.950000
 20
115.000000
 40
3.168750
 41
27.462500
 71
     1
 72
     5
  1
\fＭＳ 明朝|b1|i0|c128|p17;\T1.0200;Φ\fTimes New Roman|b1|i0|c0|p18;50\fＭＳ 明朝|b1|i0|c128|p17;外径
 44
0.966489
 73
     1
  7
BIGFONT
  0
CIRCLE
  5
182
100
AcDbEntity
  8
0
370
    20
100
AcDbCircle
 10
70.950000
 20
98.000000
 40
1.000000
  0
LINE
  5
185
100
AcDbEntity
  8
0
370
    20
100
AcDbLine
 10
70.950000
 20
98.125000
 11
106.950000
 21
98.125000
  0
LWPOLYLINE
  5
188
100
AcDbEntity
  8
0
100
AcDbPolyline
 90
     3
 70
     0
 43
0.200000
 10
73.700000
 20
99.275000
 10
70.950000
 20
98.125000
 10
73.700000
 20
97.000000
  0
MTEXT
  5
191
100
AcDbEntity
  8
0
100
AcDbMText
 10
109.950000
 20
103.000000
 40
3.168750
 41
38.025000
 71
     1
 72
     5
  1
\fＭＳ 明朝|b1|i0|c128|p17;\T1.0200;ウィープホール\P
 44
0.966489
 73
     1
  7
BIGFONT
  0
LINE
  5
194
100
AcDbEntity
  8
0
370
    20
100
AcDbLine
 10
65.950000
 20
93.000000
 11
65.950000
 21
97.000000
  0
LWPOLYLINE
  5
197
100
AcDbEntity
  8
0
100
AcDbPolyline
 90
     3
 70
     0
 43
0.200000
 10
67.075000
 20
94.250000
 10
65.950000
 20
97.000000
 10
64.800000
 20
94.250000
  0
LWPOLYLINE
  5
1a0
100
AcDbEntity
  8
0
100
AcDbPolyline
 90
     3
 70
     0
 43
0.200000
 10
64.800000
 20
95.775000
 10
65.950000
 20
93.000000
 10
67.075000
 20
95.775000
  0
MTEXT
  5
1a9
100
AcDbEntity
  8
0
100
AcDbMText
 10
59.950000
 20
97.000000
 40
4.225000
 41
8.450000
 71
     1
 72
     5
  1
\fTimes New Roman|b1|i0|c0|p18;\T0.9100;80
 44
0.798817
 73
     1
  7
BIGFONT
  0
LWPOLYLINE
  5
1ac
100
AcDbEntity
  8
0
100
AcDbPolyline
 90
     4
 70
     1
 43
0.200000
 10
66.950000
 20
84.800000
 10
75.950000
 20
84.800000
 10
75.950000
 20
41.000000
 10
66.950000
 20
41.000000
  0
MTEXT
  5
1b7
100
AcDbEntity
  8
0
100
AcDbMText
 10
95.950000
 20
75.000000
 40
3.168750
 41
71.825000
 71
     1
 72
     5
  3
\fＭＳ 明朝|b1|i0|c128|p17;\T1.0200;ピストン・シリンダー（標準で付属）\P外径Φ\fTimes New Roman|b1|i0|c0|p18;90\fＭＳ 明朝|b1|i0|c128|p17;　内径Φ\fTimes New Roman|b1|i0|c0|p18;76\fＭＳ 明朝|b1|i0|c128|p17;\P\fTimes New Roman|b1|i0|c0|p18;L=438
  1
\fＭＳ 明朝|b1|i0|c128|p17;\P
 44
0.966489
 73
     1
  7
BIGFONT
  0
SPLINE
  5
1ba
100
AcDbEntity
  8
0
370
    20
100
AcDbSpline
210
0.000000
220
0.000000
230
1.000000
 70
     9
 71
     3
 72
    23
 73
    19
 74
     0
 42
0.0000001
 43
0.0000001
 44
0.0000000001
 40
0.000000
 40
0.000000
 40
0.000000
 40
0.000000
 40
7.600000
 40
7.600000
 40
7.600000
 40
10.326032
 40
10.326032
 40
10.326032
 40
12.146918
 40
12.146918
 40
12.146918
 40
16.996918
 40
16.996918
 40
16.996918
 40
18.923865
 40
18.923865
 40
18.923865
 40
21.573865
 40
21.573865
 40
21.573865
 40
21.573865
 10
67.775000
 20
52.900000
 30
0.000000
 10
67.775000
 20
52.900000
 30
0.000000
 10
75.375000
 20
52.900000
 30
0.000000
 10
75.375000
 20
52.900000
 30
0.000000
 10
75.375000
 20
52.900000
 30
0.000000
 10
75.300000
 20
50.175000
 30
0.000000
 10
75.300000
 20
50.175000
 30
0.000000
 10
75.300000
 20
49.425000
 30
0.000000
 10
74.750000
 20
48.900000
 30
0.000000
 10
74.000000
 20
48.900000
 30
0.000000
 10
74.000000
 20
48.900000
 30
0.000000
 10
69.150000
 20
48.900000
 30
0.000000
 10
69.150000
 20
48.900000
 30
0.000000
 10
68.400000
 20
48.900000
 30
0.000000
 10
67.775000
 20
49.500000
 30
0.000000
 10
67.775000
 20
50.250000
 30
0.000000
 10
67.775000
 20
50.250000
 30
0.000000
 10
67.775000
 20
52.900000
 30
0.000000
 10
67.775000
 20
52.900000
 30
0.000000
  0
LWPOLYLINE
  5
1bd
100
AcDbEntity
  8
0
100
AcDbPolyline
 90
     4
 70
     1
 43
0.200000
 10
71.350000
 20
62.100000
 10
72.225000
 20
62.100000
 10
72.225000
 20
52.975000
 10
71.350000
 20
52.975000
  0
LWPOLYLINE
  5
1c8
100
AcDbEntity
  8
0
100
AcDbPolyline
 90
     4
 70
     1
 43
0.200000
 10
70.700000
 20
65.925000
 10
72.650000
 20
65.925000
 10
72.650000
 20
62.100000
 10
70.700000
 20
62.100000
  0
LWPOLYLINE
  5
1d3
100
AcDbEntity
  8
0
  6
DOT
 62
     7
100
AcDbPolyline
 90
     4
 70
     1
 43
0.200000
 10
67.650000
 20
81.850000
 10
75.250000
 20
81.850000
 10
75.250000
 20
42.500000
 10
67.650000
 20
42.500000
  0
SPLINE
  5
1de
100
AcDbEntity
  8
0
  6
DOT
 62
     7
370
    20
100
AcDbSpline
210
0.000000
220
0.000000
230
1.000000
 70
     8
 71
     3
 72
    11
 73
     7
 74
     0
 42
0.0000001
 43
0.0000001
 44
0.0000000001
 40
0.000000
 40
0.000000
 40
0.000000
 40
0.000000
 40
8.986274
 40
8.986274
 40
8.986274
 40
24.102429
 40
24.102429
 40
24.102429
 40
24.102429
 10
63.025000
 20
67.125000
 30
0.000000
 10
65.450000
 20
68.900000
 30
0.000000
 10
67.875000
 20
70.675000
 30
0.000000
 10
70.475000
 20
72.150000
 30
0.000000
 10
74.850000
 20
74.625000
 30
0.000000
 10
79.400000
 20
76.800000
 30
0.000000
 10
83.950000
 20
79.000000
 30
0.000000
  0
LWPOLYLINE
  5
1e1
100
AcDbEntity
  8
0
100
AcDbPolyline
 90
     4
 70
     1
 43
0.200000
 10
69.600000
 20
42.575000
 10
73.200000
 20
42.575000
 10
73.200000
 20
41.000000
 10
69.600000
 20
41.000000
  0
LWPOLYLINE
  5
1ec
100
AcDbEntity
  8
0
100
AcDbPolyline
 90
     4
 70
     1
 43
0.200000
 10
68.775000
 20
84.575000
 10
73.950000
 20
84.575000
 10
73.950000
 20
81.850000
 10
68.775000
 20
81.850000
  0
LWPOLYLINE
  5
1f7
100
AcDbEntity
  8
0
100
AcDbPolyline
 90
     2
 70
     0
 43
0.200000
 10
69.425000
 20
41.000000
 10
73.100000
 20
41.450000
  0
LWPOLYLINE
  5
1fe
100
AcDbEntity
  8
0
100
AcDbPolyline
 90
     2
 70
     0
 43
0.200000
 10
69.700000
 20
41.925000
 10
72.975000
 20
42.225000
  0
LWPOLYLINE
  5
205
100
AcDbEntity
  8
0
100
AcDbPolyline
 90
     3
 70
     0
 43
0.200000
 10
69.575000
 20
41.450000
 10
73.100000
 20
41.775000
 10
73.025000
 20
41.975000
  0
SPLINE
  5
20e
100
AcDbEntity
  8
0
370
    20
100
AcDbSpline
210
0.000000
220
0.000000
230
1.000000
 70
     9
 71
     3
 72
    23
 73
    19
 74
     0
 42
0.0000001
 43
0.0000001
 44
0.0000000001
 40
0.000000
 40
0.000000
 40
0.000000
 40
0.000000
 40
1.202601
 40
1.202601
 40
1.202601
 40
4.677961
 40
4.677961
 40
4.677961
 40
5.814293
 40
5.814293
 40
5.814293
 40
6.839293
 40
6.839293
 40
6.839293
 40
11.864293
 40
11.864293
 40
11.864293
 40
12.939293
 40
12.939293
 40
12.939293
 40
12.939293
 10
69.050000
 20
43.750000
 30
0.000000
 10
69.050000
 20
44.225000
 30
0.000000
 10
69.400000
 20
44.625000
 30
0.000000
 10
69.875000
 20
44.625000
 30
0.000000
 10
69.875000
 20
44.625000
 30
0.000000
 10
73.350000
 20
44.575000
 30
0.000000
 10
73.350000
 20
44.575000
 30
0.000000
 10
73.725000
 20
44.575000
 30
0.000000
 10
74.075000
 20
44.075000
 30
0.000000
 10
74.075000
 20
43.700000
 30
0.000000
 10
74.075000
 20
43.700000
 30
0.000000
 10
74.075000
 20
42.675000
 30
0.000000
 10
74.075000
 20
42.675000
 30
0.000000
 10
74.075000
 20
42.675000
 30
0.000000
 10
69.050000
 20
42.675000
 30
0.000000
 10
69.050000
 20
42.675000
 30
0.000000
 10
69.050000
 20
42.675000
 30
0.000000
 10
69.050000
 20
43.750000
 30
0.000000
 10
69.050000
 20
43.750000
 30
0.000000
  0
LWPOLYLINE
  5
211
100
AcDbEntity
  8
0
100
AcDbPolyline
 90
     4
 70
     0
 43
0.200000
 10
29.600000
 20
187.000000
 10
29.600000
 20
88.500000
 10
28.600000
 20
88.500000
 10
28.600000
 20
187.000000
  0
LINE
  5
21c
100
AcDbEntity
  8
0
370
    20
100
AcDbLine
 10
28.600000
 20
191.000000
 11
29.600000
 21
191.000000
  0
LWPOLYLINE
  5
21f
100
AcDbEntity
  8
0
100
AcDbPolyline
 90
     4
 70
     1
 43
0.200000
 10
28.100000
 20
191.000000
 10
30.100000
 20
191.000000
 10
30.100000
 20
187.000000
 10
28.100000
 20
187.000000
  0
LWPOLYLINE
  5
22a
100
AcDbEntity
  8
0
100
AcDbPolyline
 90
     3
 70
     0
 43
0.200000
 10
28.600000
 20
88.750000
 10
29.500000
 20
88.825000
 10
29.550000
 20
88.850000
  0
LWPOLYLINE
  5
233
100
AcDbEntity
  8
0
100
AcDbPolyline
 90
     2
 70
     0
 43
0.200000
 10
28.625000
 20
89.050000
 10
29.500000
 20
89.125000
  0
LWPOLYLINE
  5
23a
100
AcDbEntity
  8
0
100
AcDbPolyline
 90
     2
 70
     0
 43
0.200000
 10
28.625000
 20
89.350000
 10
29.600000
 20
89.450000
  0
LWPOLYLINE
  5
241
100
AcDbEntity
  8
0
100
AcDbPolyline
 90
     2
 70
     0
 43
0.200000
 10
28.675000
 20
89.625000
 10
29.500000
 20
89.725000
  0
LWPOLYLINE
  5
248
100
AcDbEntity
  8
0
100
AcDbPolyline
 90
     2
 70
     0
 43
0.200000
 10
28.625000
 20
89.900000
 10
29.650000
 20
90.025000
  0
LWPOLYLINE
  5
24f
100
AcDbEntity
  8
0
100
AcDbPolyline
 90
     4
 70
     1
 43
0.200000
 10
28.100000
 20
90.575000
 10
30.175000
 20
90.575000
 10
30.175000
 20
90.000000
 10
28.100000
 20
90.000000
  0
LWPOLYLINE
  5
25a
100
AcDbEntity
  8
0
100
AcDbPolyline
 90
     4
 70
     1
 43
0.200000
 10
28.000000
 20
172.575000
 10
30.300000
 20
172.575000
 10
30.300000
 20
170.575000
 10
28.000000
 20
170.575000
  0
LINE
  5
265
100
AcDbEntity
  8
0
370
    20
100
AcDbLine
 10
29.950000
 20
149.000000
 11
47.950000
 21
149.000000
  0
LWPOLYLINE
  5
268
100
AcDbEntity
  8
0
100
AcDbPolyline
 90
     3
 70
     0
 43
0.200000
 10
32.700000
 20
150.150000
 10
29.950000
 20
149.000000
 10
32.700000
 20
147.875000
  0
MTEXT
  5
271
100
AcDbEntity
  8
0
100
AcDbMText
 10
47.950000
 20
151.000000
 40
3.168750
 41
16.900000
 71
     1
 72
     5
  1
\fＭＳ 明朝|b1|i0|c128|p17;\T1.0200;ロッド棒
 44
0.966489
 73
     1
  7
BIGFONT
  0
MTEXT
  5
274
100
AcDbEntity
  8
0
100
AcDbMText
 10
24.000000
 20
247.000000
 40
3.168750
 41
92.950000
 71
     1
 72
     5
  1
\fＭＳ 明朝|b1|i0|c128|p17;\T1.0200;ダウンパイプ・ピストン・シリンダー・ロッド棒
 44
0.966489
 73
     1
  7
BIGFONT
  0
LINE
  5
277
100
AcDbEntity
  8
0
370
    40
100
AcDbLine
 10
70.000000
 20
39.000000
 11
70.000000
 21
31.000000
  0
LWPOLYLINE
  5
27a
100
AcDbEntity
  8
0
100
AcDbPolyline
 90
     3
 70
     0
 43
0.400000
 10
71.125000
 20
36.250000
 10
70.000000
 20
39.000000
 10
68.850000
 20
36.250000
  0
MTEXT
  5
283
100
AcDbEntity
  8
0
100
AcDbMText
 10
73.975000
 20
34.075000
 40
3.168750
 41
38.025000
 71
     1
 72
     5
  1
\fＭＳ 明朝|b0|i0|c128|p17;\T1.0200;塩ビ\fTimes New Roman|b0|i0|c0|p18;VP\fＭＳ 明朝|b0|i0|c128|p17;３０
 44
0.966489
 73
     1
  7
BIGFONT
  0
MTEXT
  5
286
100
AcDbEntity
  8
0
100
AcDbMText
 10
83.550000
 20
171.975000
 40
3.168750
 41
63.375000
 71
     1
 72
     5
  1
\fＭＳ 明朝|b1|i0|c128|p17;\T1.0200;ダウンパイプ
 44
0.966489
 73
     1
  7
BIGFONT
  0
ENDSEC
  0
SECTION
  2
OBJECTS
  0
DICTIONARY
  5
291
100
AcDbDictionary
281
     1
  3
ACAD_COLOR
350
292
  3
ACAD_GROUP
350
293
  3
ACAD_LAYOUT
350
294
  3
ACAD_MATERIAL
350
295
  3
ACAD_MLINESTYLE
350
296
  3
CONTENTDICTIONARY
350
29c
  0
DICTIONARY
  5
292
102
{ACAD_REACTORS
330
291
102
}
330
291
100
AcDbDictionary
281
     1
  0
DICTIONARY
  5
293
102
{ACAD_REACTORS
330
291
102
}
330
291
100
AcDbDictionary
281
     1
  3
Layout1
350
29d
  3
Layout2
350
29e
  3
Model
350
2e1
  0
DICTIONARY
  5
294
102
{ACAD_REACTORS
330
291
102
}
330
291
100
AcDbDictionary
281
     1
  0
DICTIONARY
  5
295
102
{ACAD_REACTORS
330
291
102
}
330
291
100
AcDbDictionary
281
     1
  0
DICTIONARY
  5
296
102
{ACAD_REACTORS
330
291
102
}
330
291
100
AcDbDictionary
281
     1
  3
Standard
350
29f
  0
DICTIONARY
  5
297
102
{ACAD_REACTORS
330
291
102
}
330
291
100
AcDbDictionary
281
     1
  0
ACDBDICTIONARYWDFLT
  5
298
102
{ACAD_REACTORS
330
291
102
}
330
291
100
AcDbDictionary
281
     1
  3
Normal
350
2e2
100
AcDbDictionaryWithDefault
340
2e2
  0
DICTIONARY
  5
299
102
{ACAD_REACTORS
330
291
102
}
330
291
100
AcDbDictionary
281
     1
  3
Standard
350
2e3
  0
DICTIONARY
  5
29a
102
{ACAD_REACTORS
330
291
102
}
330
291
100
AcDbDictionary
281
     1
  3
CEPSNTYPE
350
2a1
  3
FINGERPRINTGUID
350
2a2
  3
HYPERLINKBASE
350
2a3
  3
INSUNITS
350
2a4
  3
LAYOUTDICT
350
2a5
  3
LWETCUNION
350
2a6
  3
PLOTSETDICT
350
2a7
  3
PLOTSTYLNAMDICT
350
2a8
  3
PSVPSCALE
350
2a9
  3
PUCSBASE
350
2aa
  3
PUCSORGBACK
350
2ab
  3
PUCSORGBOTTOM
350
2ac
  3
PUCSORGFRONT
350
2ad
  3
PUCSORGLEFT
350
2ae
  3
PUCSORGRIGHT
350
2af
  3
PUCSORGTOP
350
2b0
  3
PUCSORTHOREF
350
2b1
  3
PUCSORTHOVIEW
350
2b2
  3
STYLESHEET
350
2b3
  3
TSTACKALIGN
350
2b4
  3
TSTACKSIZE
350
2b5
  3
UCSBASE
350
2b6
  3
UCSORGBACK
350
2b7
  3
UCSORGBOTTOM
350
2b8
  3
UCSORGFRONT
350
2b9
  3
UCSORGLEFT
350
2ba
  3
UCSORGRIGHT
350
2bb
  3
UCSORGTOP
350
2bc
  3
UCSORTHOREF
350
2bd
  3
UCSORTHOVIEW
350
2be
  3
VERSIONGUID
350
2bf
  0
DICTIONARY
  5
29b
102
{ACAD_REACTORS
330
291
102
}
330
291
100
AcDbDictionary
281
     1
  3
CTABLESTYLE
350
2c0
  3
DIMASSOC
350
2c1
  3
HIDETEXT
350
2c2
  3
PROJECTNAME
350
2c3
  0
LAYOUT
  5
29c
102
{ACAD_XDICTIONARY
360
5a7
102
}
102
{ACAD_REACTORS
330
292
102
}
330
292
100
AcDbPlotSettings
  1

  2

  4

  6

 40
0.000000
 41
0.000000
 42
0.000000
 43
0.000000
 44
0.000000
 45
0.000000
 46
0.000000
 47
0.000000
 48
0.000000
 49
0.000000
140
0.000000
141
0.000000
142
1.000000
143
1.000000
 70
   688
 72
     0
 73
     0
 74
     5
  7

 75
    16
147
1.000000
148
0.000000
149
0.000000
100
AcDbLayout
  1
Layout1
 70
     1
 71
     1
 10
0.000000
 20
0.000000
 11
190.000000
 21
257.000000
 12
0.000000
 22
0.000000
 32
0.000000
 14
100000000000000000000.000000
 24
100000000000000000000.000000
 34
100000000000000000000.000000
 15
-100000000000000000000.000000
 25
-100000000000000000000.000000
 35
-100000000000000000000.000000
146
0.000000
 13
0.000000
 23
0.000000
 33
0.000000
 16
1.000000
 26
0.000000
 36
0.000000
 17
0.000000
 27
1.000000
 37
0.000000
 76
     0
330
296
  0
LAYOUT
  5
29d
102
{ACAD_XDICTIONARY
360
5a9
102
}
102
{ACAD_REACTORS
330
292
102
}
330
292
100
AcDbPlotSettings
  1

  2

  4

  6

 40
0.000000
 41
0.000000
 42
0.000000
 43
0.000000
 44
0.000000
 45
0.000000
 46
0.000000
 47
0.000000
 48
0.000000
 49
0.000000
140
0.000000
141
0.000000
142
1.000000
143
1.000000
 70
   688
 72
     0
 73
     0
 74
     5
  7

 75
    16
147
1.000000
148
0.000000
149
0.000000
100
AcDbLayout
  1
Layout2
 70
     1
 71
     2
 10
0.000000
 20
0.000000
 11
190.000000
 21
257.000000
 12
0.000000
 22
0.000000
 32
0.000000
 14
0.000000
 24
0.000000
 34
0.000000
 15
0.000000
 25
0.000000
 35
0.000000
146
0.000000
 13
0.000000
 23
0.000000
 33
0.000000
 16
1.000000
 26
0.000000
 36
0.000000
 17
0.000000
 27
1.000000
 37
0.000000
 76
     0
330
29d
  0
LAYOUT
  5
29e
102
{ACAD_XDICTIONARY
360
5ab
102
}
102
{ACAD_REACTORS
330
292
102
}
330
292
100
AcDbPlotSettings
  1

  2

  4

  6

 40
0.000000
 41
0.000000
 42
0.000000
 43
0.000000
 44
0.000000
 45
0.000000
 46
0.000000
 47
0.000000
 48
0.000000
 49
0.000000
140
0.000000
141
0.000000
142
1.000000
143
1.000000
 70
  1712
 72
     0
 73
     0
 74
     0
  7

 75
    16
147
1.000000
148
0.000000
149
0.000000
100
AcDbLayout
  1
Model
 70
     1
 71
     0
 10
0.000000
 20
0.000000
 11
190.000000
 21
257.000000
 12
0.000000
 22
0.000000
 32
0.000000
 14
0.000000
 24
0.000000
 34
0.000000
 15
0.000000
 25
0.000000
 35
0.000000
146
0.000000
 13
0.000000
 23
0.000000
 33
0.000000
 16
1.000000
 26
0.000000
 36
0.000000
 17
0.000000
 27
1.000000
 37
0.000000
 76
     0
330
29e
  0
MLINESTYLE
  5
29f
102
{ACAD_REACTORS
330
29e
102
}
330
29e
100
AcDbMlineStyle
  2
STANDARD
 70
     0
  3
 
 62
   256
 51
90.000000
 52
90.000000
 71
     2
 49
0.500000
 62
   256
  6
BYLAYER
 49
-0.500000
 62
   256
  6
BYLAYER
  0
ACDBPLACEHOLDER
  5
2a0
102
{ACAD_REACTORS
330
29f
102
}
330
29f
  0
DICTIONARY
  5
5a7
100
AcDbDictionary
280
     1
281
     1
  3
ACAD_XREC_ROUNDTRIP
360
5a8
  0
DICTIONARY
  5
5a9
100
AcDbDictionary
280
     1
281
     1
  3
ACAD_XREC_ROUNDTRIP
360
5aa
  0
DICTIONARY
  5
5ab
100
AcDbDictionary
280
     1
281
     1
  3
ACAD_XREC_ROUNDTRIP
360
5ac
  0
XRECORD
  5
5a8
102
{ACAD_REACTORS
330
5a7
102
}
330
5a7
100
AcDbXrecord
280
     1
102
SHADEPLOT
 70
     0
102
SHADEPLOTRESLEVEL
 70
     2
102
SHADEPLOTCUSTOMDPI
 70
   300
  0
XRECORD
  5
5aa
102
{ACAD_REACTORS
330
5a9
102
}
330
5a9
100
AcDbXrecord
280
     1
102
SHADEPLOT
 70
     0
102
SHADEPLOTRESLEVEL
 70
     2
102
SHADEPLOTCUSTOMDPI
 70
   300
  0
XRECORD
  5
5ac
102
{ACAD_REACTORS
330
5ab
102
}
330
5ab
100
AcDbXrecord
280
     1
102
SHADEPLOT
 70
     0
102
SHADEPLOTRESLEVEL
 70
     2
102
SHADEPLOTCUSTOMDPI
 70
   300
  0
ENDSEC
  0
EOF
