  0
SECTION
  2
HEADER
  9
$ACADVER
  1
AC1018
  9
$ACADMAINTVER
 70
     0
  9
$DWGCODEPAGE
  3
ANSI_932
  9
$INSBASE
 10
0.000000
 20
0.000000
 30
0.000000
  9
$EXTMIN
 10
0.000000
 20
0.000000
 30
0.000000
  9
$EXTMAX
 10
190.000000
 20
257.000000
 30
0.000000
  9
$LIMMIN
 10
0.000000
 20
0.000000
  9
$LIMMAX
 10
190.000000
 20
257.000000
  9
$ORTHOMODE
 70
     0
  9
$REGENMODE
 70
     1
  9
$FILLMODE
 70
     1
  9
$QTEXTMODE
 70
     0
  9
$MIRRTEXT
 70
     1
  9
$LTSCALE
 40
1.000000
  9
$ATTMODE
 70
     1
  9
$TEXTSIZE
 40
2.500000
  9
$TRACEWID
 40
1.000000
  9
$TEXTSTYLE
  7
BIGFONT
  9
$CLAYER
  8
0
  9
$CELTYPE
  6
BYLAYER
  9
$CECOLOR
 62
   256
  9
$CELTSCALE
 40
1.000000
  9
$DISPSILH
 70
     0
  9
$DIMSCALE
 40
1.000000
  9
$DIMASZ
 40
2.500000
  9
$DIMEXO
 40
0.625000
  9
$DIMDLI
 40
3.750000
  9
$DIMRND
 40
0.000000
  9
$DIMDLE
 40
0.000000
  9
$DIMEXE
 40
1.250000
  9
$DIMTP
 40
0.000000
  9
$DIMTM
 40
0.000000
  9
$DIMTXT
 40
2.500000
  9
$DIMCEN
 40
2.500000
  9
$DIMTSZ
 40
0.000000
  9
$DIMTOL
 70
     0
  9
$DIMLIM
 70
     0
  9
$DIMTIH
 70
     0
  9
$DIMTOH
 70
     0
  9
$DIMSE1
 70
     0
  9
$DIMSE2
 70
     0
  9
$DIMTAD
 70
     1
  9
$DIMZIN
 70
     8
  9
$DIMBLK
  1

  9
$DIMASO
 70
     1
  9
$DIMSHO
 70
     1
  9
$DIMPOST
  1

  9
$DIMAPOST
  1

  9
$DIMALT
 70
     0
  9
$DIMALTD
 70
     4
  9
$DIMALTF
 40
0.039400
  9
$DIMLFAC
 40
1.000000
  9
$DIMTOFL
 70
     1
  9
$DIMTVP
 40
0.000000
  9
$DIMTIX
 70
     0
  9
$DIMSOXD
 70
     0
  9
$DIMSAH
 70
     0
  9
$DIMBLK1
  1

  9
$DIMBLK2
  1

  9
$DIMSTYLE
  2
STANDARD
  9
$DIMCLRD
 70
     0
  9
$DIMCLRE
 70
     0
  9
$DIMCLRT
 70
     0
  9
$DIMTFAC
 40
1.000000
  9
$DIMGAP
 40
0.625000
  9
$DIMJUST
 70
     0
  9
$DIMSD1
 70
     0
  9
$DIMSD2
 70
     0
  9
$DIMTOLJ
 70
     1
  9
$DIMTZIN
 70
     0
  9
$DIMALTZ
 70
     0
  9
$DIMALTTZ
 70
     0
  9
$DIMUPT
 70
     0
  9
$DIMDEC
 70
     4
  9
$DIMTDEC
 70
     4
  9
$DIMALTU
 70
     8
  9
$DIMALTTD
 70
     4
  9
$DIMTXSTY
  7
STANDARD
  9
$DIMAUNIT
 70
     0
  9
$DIMADEC
 70
     0
  9
$DIMALTRND
 40
0.000000
  9
$DIMAZIN
 70
     0
  9
$DIMDSEP
 70
    46
  9
$DIMATFIT
 70
     3
  9
$DIMFRAC
 70
     0
  9
$DIMLDRBLK
  1

  9
$DIMLUNIT
 70
     2
  9
$DIMLWD
 70
-2
  9
$DIMLWE
 70
-2
  9
$DIMTMOVE
 70
     0
  9
$LUNITS
 70
     2
  9
$LUPREC
 70
     4
  9
$AXISMODE
 70
     0
  9
$SKETCHINC
 40
1.000000
  9
$FILLETRAD
 40
10.000000
  9
$AUNITS
 70
     0
  9
$AUPREC
 70
     0
  9
$MENU
  1
acad
  9
$ELEVATION
 40
0.000000
  9
$PELEVATION
 40
0.000000
  9
$THICKNESS
 40
0.000000
  9
$LIMCHECK
 70
     0
  9
$BLIPMODE
 70
     0
  9
$CHAMFERA
 40
10.000000
  9
$CHAMFERB
 40
10.000000
  9
$CHAMFERC
 40
20.000000
  9
$CHAMFERD
 40
0.000000
  9
$SKPOLY
 70
     0
  9
$TDCREATE
 40
2447851.677998
  9
$TDUCREATE
 40
2447851.677998
  9
$TDUPDATE
 40
2447851.677998
  9
$TDUUPDATE
 40
2447851.677998
  9
$TDINDWG
 40
0.000000
  9
$TDUSRTIMER
 40
0.000000
  9
$USRTIMER
 70
     1
  9
$ANGBASE
 50
0.000000
  9
$ANGDIR
 70
     0
  9
$PDMODE
 70
     0
  9
$PDSIZE
 40
0.000000
  9
$PLINEWID
 40
0.000000
  9
$SPLFRAME
 70
     0
  9
$SPLINETYPE
 70
     6
  9
$SPLINESEGS
 70
     8
  9
$HANDSEED
  5
FFFFFFF
  9
$SURFTAB1
 70
     6
  9
$SURFTAB2
 70
     6
  9
$SURFTYPE
 70
     6
  9
$SURFU
 70
     6
  9
$SURFV
 70
     6
  9
$UCSBASE
  2

  9
$UCSNAME
  2

  9
$UCSORG
 10
0.000000
 20
0.000000
 30
0.000000
  9
$UCSXDIR
 10
1.000000
 20
0.000000
 30
0.000000
  9
$UCSYDIR
 10
0.000000
 20
1.000000
 30
0.000000
  9
$UCSORTHOREF
  2

  9
$UCSORTHOVIEW
 70
     0
  9
$UCSORGTOP
 10
0.000000
 20
0.000000
 30
0.000000
  9
$UCSORGBOTTOM
 10
0.000000
 20
0.000000
 30
0.000000
  9
$UCSORGLEFT
 10
0.000000
 20
0.000000
 30
0.000000
  9
$UCSORGRIGHT
 10
0.000000
 20
0.000000
 30
0.000000
  9
$UCSORGFRONT
 10
0.000000
 20
0.000000
 30
0.000000
  9
$UCSORGBACK
 10
0.000000
 20
0.000000
 30
0.000000
  9
$PUCSBASE
  2

  9
$PUCSNAME
  2

  9
$PUCSORG
 10
0.000000
 20
0.000000
 30
0.000000
  9
$PUCSXDIR
 10
1.000000
 20
0.000000
 30
0.000000
  9
$PUCSYDIR
 10
0.000000
 20
1.000000
 30
0.000000
  9
$PUCSORTHOREF
  2

  9
$PUCSORTHOVIEW
 70
     0
  9
$PUCSORGTOP
 10
0.000000
 20
0.000000
 30
0.000000
  9
$PUCSORGBOTTOM
 10
0.000000
 20
0.000000
 30
0.000000
  9
$PUCSORGLEFT
 10
0.000000
 20
0.000000
 30
0.000000
  9
$PUCSORGRIGHT
 10
0.000000
 20
0.000000
 30
0.000000
  9
$PUCSORGFRONT
 10
0.000000
 20
0.000000
 30
0.000000
  9
$PUCSORGBACK
 10
0.000000
 20
0.000000
 30
0.000000
  9
$USERI1
 70
     0
  9
$USERI2
 70
     0
  9
$USERI3
 70
     0
  9
$USERI4
 70
     0
  9
$USERI5
 70
     0
  9
$USERR1
 40
0.000000
  9
$USERR2
 40
0.000000
  9
$USERR3
 40
0.000000
  9
$USERR4
 40
0.000000
  9
$USERR5
 40
0.000000
  9
$WORLDVIEW
 70
     1
  9
$SHADEDGE
 70
     3
  9
$SHADEDIF
 70
    70
  9
$TILEMODE
 70
     1
  9
$MAXACTVP
 70
    48
  9
$PINSBASE
 10
0.000000
 20
0.000000
 30
0.000000
  9
$PLIMCHECK
 70
     0
  9
$PEXTMIN
 10
100000000000000000000.000000
 20
100000000000000000000.000000
 30
100000000000000000000.000000
  9
$PEXTMAX
 10
-100000000000000000000.000000
 20
-100000000000000000000.000000
 30
-100000000000000000000.000000
  9
$PLIMMIN
 10
0.000000
 20
0.000000
  9
$PLIMMAX
 10
190.000000
 20
257.000000
  9
$UNITMODE
 70
     0
  9
$VISRETAIN
 70
     1
  9
$PLINEGEN
 70
     0
  9
$PSLTSCALE
 70
     1
  9
$TREEDEPTH
 70
  3020
  9
$CMLSTYLE
  2
STANDARD
  9
$CMLJUST
 70
     0
  9
$CMLSCALE
 40
20.000000
  9
$PROXYGRAPHICS
 70
     1
  9
$MEASUREMENT
 70
     1
  9
$CELWEIGHT
370
-1
  9
$ENDCAPS
280
     0
  9
$JOINSTYLE
280
     0
  9
$LWDISPLAY
290
     1
  9
$INSUNITS
 70
     0
  9
$HYPERLINKBASE
  1

  9
$STYLESHEET
  1

  9
$XEDIT
290
     1
  9
$CEPSNTYPE
380
     0
  9
$PSTYLEMODE
290
     1
  9
$FINGERPRINTGUID
  2
{01801163-5BC0-459E-B9C7-2188C09ED432}
  9
$VERSIONGUID
  2
{7F326DDD-95DF-42AD-9861-A0CD9F0961F2}
  9
$EXTNAMES
290
     1
  9
$PSVPSCALE
 40
0.0
  9
$OLESTARTUP
290
     0
  9
$SORTENTS
280
   127
  9
$INDEXCTL
280
     0
  9
$HIDETEXT
280
     1
  9
$XCLIPFRAME
290
     0
  9
$HALOGAP
280
     0
  9
$OBSCOLOR
 70
   257
  9
$OBSLTYPE
280
     0
  9
$INTERSECTIONDISPLAY
280
     0
  9
$INTERSECTIONCOLOR
 70
   257
  9
$DIMASSOC
280
     2
  9
$PROJECTNAME
  1

  0
ENDSEC
  0
SECTION
  2
TABLES
  0
TABLE
  2
VPORT
  5
a2
100
AcDbSymbolTable
 70
     2
  0
VPORT
  5
a5
100
AcDbSymbolTableRecord
100
AcDbViewportTableRecord
  2
*ACTIVE
 70
     0
 10
0.000000
 20
0.000000
 11
1.000000
 21
1.000000
 12
300.000000
 22
200.000000
 13
0.000000
 23
0.000000
 14
10.000000
 24
10.000000
 15
10.000000
 25
10.000000
 16
0.000000
 26
0.000000
 36
1.000000
 17
0.000000
 27
0.000000
 37
0.000000
 40
300.000000
 41
1.600432
 42
50.000000
 43
0.000000
 44
0.000000
 50
0.000000
 51
0.000000
 71
     0
 72
   100
 73
     1
 74
     1
 75
     0
 76
     0
 77
     0
 78
     0
  0
ENDTAB
  0
TABLE
  2
LTYPE
  5
a8
100
AcDbSymbolTable
 70
    11
  0
LTYPE
  5
ab
100
AcDbSymbolTableRecord
100
AcDbLinetypeTableRecord
  2
BYBLOCK
 70
    64
  3
BYBLOCK
 72
    65
 73
     0
 40
0.000000
  0
LTYPE
  5
ae
100
AcDbSymbolTableRecord
100
AcDbLinetypeTableRecord
  2
BYLAYER
 70
    64
  3
BYLAYER
 72
    65
 73
     0
 40
0.000000
  0
LTYPE
  5
b1
100
AcDbSymbolTableRecord
100
AcDbLinetypeTableRecord
  2
CONTINUOUS
 70
    64
  3
実線
 72
    65
 73
     0
 40
0.000000
  0
LTYPE
  5
b4
100
AcDbSymbolTableRecord
100
AcDbLinetypeTableRecord
  2
DASHED
 70
    64
  3
__ __ __ __ __ __ __ __ __ __ __ __ __ __ __
 72
    65
 73
     2
 40
0.750000
 49
0.500000
 74
     0
 49
-0.250000
 74
     0
  0
LTYPE
  5
b7
100
AcDbSymbolTableRecord
100
AcDbLinetypeTableRecord
  2
HIDDEN
 70
    64
  3
_ _ _ _ _ _ _ _ _ _ _ _ _ _ _ _ _ _ _ _ _ _ _
 72
    65
 73
     2
 40
0.375000
 49
0.250000
 74
     0
 49
-0.125000
 74
     0
  0
LTYPE
  5
ba
100
AcDbSymbolTableRecord
100
AcDbLinetypeTableRecord
  2
CENTER
 70
    64
  3
____ _ ____ _ ____ _ ____ _ ____ _ ____ _ ____
 72
    65
 73
     4
 40
2.000000
 49
1.250000
 74
     0
 49
-0.250000
 74
     0
 49
0.250000
 74
     0
 49
-0.250000
 74
     0
  0
LTYPE
  5
bd
100
AcDbSymbolTableRecord
100
AcDbLinetypeTableRecord
  2
PHANTOM
 70
    64
  3
_____ _ _ _____ _ _ _____ _ _ _____ _ _ ____
 72
    65
 73
     6
 40
2.500000
 49
1.250000
 74
     0
 49
-0.250000
 74
     0
 49
0.250000
 74
     0
 49
-0.250000
 74
     0
 49
0.250000
 74
     0
 49
-0.250000
 74
     0
  0
LTYPE
  5
c0
100
AcDbSymbolTableRecord
100
AcDbLinetypeTableRecord
  2
DOT
 70
    64
  3
...............................................
 72
    65
 73
     2
 40
0.250000
 49
0.000000
 74
     0
 49
-0.250000
 74
     0
  0
LTYPE
  5
c3
100
AcDbSymbolTableRecord
100
AcDbLinetypeTableRecord
  2
DASHDOT
 70
    64
  3
__ . __ . __ . __ . __ . __ . __ . __ . __ . __
 72
    65
 73
     4
 40
1.000000
 49
0.500000
 74
     0
 49
-0.250000
 74
     0
 49
0.000000
 74
     0
 49
-0.250000
 74
     0
  0
LTYPE
  5
c6
100
AcDbSymbolTableRecord
100
AcDbLinetypeTableRecord
  2
BORDER
 70
    64
  3
__ __ . __ __ . __ __ . __ __ . __ __ . __ __
 72
    65
 73
     6
 40
1.750000
 49
0.500000
 74
     0
 49
-0.250000
 74
     0
 49
0.500000
 74
     0
 49
-0.250000
 74
     0
 49
0.000000
 74
     0
 49
-0.250000
 74
     0
  0
LTYPE
  5
c9
100
AcDbSymbolTableRecord
100
AcDbLinetypeTableRecord
  2
DIVIDE
 70
    64
  3
__ . . __ . . __ . . __ . . __ . . __ . . __
 72
    65
 73
     6
 40
1.250000
 49
0.500000
 74
     0
 49
-0.250000
 74
     0
 49
0.000000
 74
     0
 49
-0.250000
 74
     0
 49
0.000000
 74
     0
 49
-0.250000
 74
     0
  0
ENDTAB
  0
TABLE
  2
LAYER
  5
cc
100
AcDbSymbolTable
 70
     2
  0
LAYER
  5
cf
100
AcDbSymbolTableRecord
100
AcDbLayerTableRecord
  2
0
 70
     0
 62
     7
  6
CONTINUOUS
370
 65533
390
	F
  0
LAYER
  5
d2
100
AcDbSymbolTableRecord
100
AcDbLayerTableRecord
  2
B
 70
     0
 62
     7
  6
CONTINUOUS
370
 65533
390
	F
  0
LAYER
  5
d5
100
AcDbSymbolTableRecord
100
AcDbLayerTableRecord
  2
C
 70
     0
 62
     7
  6
CONTINUOUS
370
 65533
390
	F
  0
LAYER
  5
d8
100
AcDbSymbolTableRecord
100
AcDbLayerTableRecord
  2
D
 70
     0
 62
     7
  6
CONTINUOUS
370
 65533
390
	F
  0
LAYER
  5
db
100
AcDbSymbolTableRecord
100
AcDbLayerTableRecord
  2
E
 70
     0
 62
     7
  6
CONTINUOUS
370
 65533
390
	F
  0
LAYER
  5
de
100
AcDbSymbolTableRecord
100
AcDbLayerTableRecord
  2
F
 70
     0
 62
     7
  6
CONTINUOUS
370
 65533
390
	F
  0
LAYER
  5
e1
100
AcDbSymbolTableRecord
100
AcDbLayerTableRecord
  2
G
 70
     0
 62
     7
  6
CONTINUOUS
370
 65533
390
	F
  0
LAYER
  5
e4
100
AcDbSymbolTableRecord
100
AcDbLayerTableRecord
  2
H
 70
     0
 62
     7
  6
CONTINUOUS
370
 65533
390
	F
  0
LAYER
  5
e7
100
AcDbSymbolTableRecord
100
AcDbLayerTableRecord
  2
I
 70
     0
 62
     7
  6
CONTINUOUS
370
 65533
390
	F
  0
LAYER
  5
ea
100
AcDbSymbolTableRecord
100
AcDbLayerTableRecord
  2
J
 70
     0
 62
     7
  6
CONTINUOUS
370
 65533
390
	F
  0
LAYER
  5
ed
100
AcDbSymbolTableRecord
100
AcDbLayerTableRecord
  2
K
 70
     0
 62
     7
  6
CONTINUOUS
370
 65533
390
	F
  0
LAYER
  5
f0
100
AcDbSymbolTableRecord
100
AcDbLayerTableRecord
  2
L
 70
     0
 62
     7
  6
CONTINUOUS
370
 65533
390
	F
  0
LAYER
  5
f3
100
AcDbSymbolTableRecord
100
AcDbLayerTableRecord
  2
M
 70
     0
 62
     7
  6
CONTINUOUS
370
 65533
390
	F
  0
LAYER
  5
f6
100
AcDbSymbolTableRecord
100
AcDbLayerTableRecord
  2
N
 70
     0
 62
     7
  6
CONTINUOUS
370
 65533
390
	F
  0
ENDTAB
  0
TABLE
  2
STYLE
  5
f9
100
AcDbSymbolTable
 70
     2
  0
STYLE
  5
fc
100
AcDbSymbolTableRecord
100
AcDbTextStyleTableRecord
  2
STANDARD
 70
     0
 40
0.000000
 41
0.500000
 50
0.000000
 71
     0
 42
0.300000
  3
txt
  4

  0
STYLE
  5
ff
100
AcDbSymbolTableRecord
100
AcDbTextStyleTableRecord
  2
BIGFONT
 70
    64
 40
0.000000
 41
1.000000
 50
0.000000
 71
     0
 42
0.200000
  3

  4
bigfont
  0
ENDTAB
  0
TABLE
  2
VIEW
  5
102
100
AcDbSymbolTable
 70
     0
  0
ENDTAB
  0
TABLE
  2
UCS
  5
105
100
AcDbSymbolTable
 70
     0
  0
ENDTAB
  0
TABLE
  2
APPID
  5
108
100
AcDbSymbolTable
 70
     3
  0
APPID
  5
10b
100
AcDbSymbolTableRecord
100
AcDbRegAppTableRecord
  2
ACAD
 70
     0
  0
APPID
  5
10e
100
AcDbSymbolTableRecord
100
AcDbRegAppTableRecord
  2
CONTENTTABDATA
 70
     0
  0
APPID
  5
111
100
AcDbSymbolTableRecord
100
AcDbRegAppTableRecord
  2
CONTENTCURRENTTAB
 70
     0
  0
ENDTAB
  0
TABLE
  2
DIMSTYLE
  5
114
330
     0
100
AcDbSymbolTable
 70
     2
100
AcDbDimStyleTable
 70
     1
  0
DIMSTYLE
105
117
100
AcDbSymbolTableRecord
100
AcDbDimStyleTableRecord
  2
STANDARD
 70
     0
  3

  4

  5

  6

  7

 40
1.000000
 41
0.180000
 42
0.062500
 43
0.380000
 44
0.180000
 45
0.000000
 46
0.000000
 47
0.000000
 48
0.000000
140
0.180000
141
0.090000
142
0.000000
143
25.400000
144
1.000000
145
0.000000
146
1.000000
147
0.090000
 71
     0
 72
     0
 73
     1
 74
     1
 75
     0
 76
     0
 77
     0
 78
     0
170
     0
171
     2
172
     0
173
     0
174
     0
175
     0
176
     0
177
     0
178
     0
270
     2
271
     4
272
     4
273
     2
274
     2
340
fc
275
     0
280
     0
281
     0
282
     0
283
     1
284
     0
285
     0
286
     0
287
     3
288
     0
  0
ENDTAB
  0
TABLE
  2
BLOCK_RECORD
  5
11a
100
AcDbSymbolTable
 70
     0
  0
BLOCK_RECORD
  5
11d
100
AcDbSymbolTableRecord
100
AcDbBlockTableRecord
  2
*MODEL_SPACE
  0
BLOCK_RECORD
  5
120
100
AcDbSymbolTableRecord
100
AcDbBlockTableRecord
  2
*PAPER_SPACE
  0
ENDTAB
  0
ENDSEC
  0
SECTION
  2
BLOCKS
  0
BLOCK
  5
123
330
124
100
AcDbEntity
  8
0
100
AcDbBlockBegin
  2
*Model_Space
 70
     0
 10
0.000000
 20
0.000000
 30
0.000000
  3
*Model_Space
  1
 
  0
ENDBLK
  5
126
330
124
100
AcDbEntity
  8
0
100
AcDbBlockEnd
  0
BLOCK
  5
129
330
12a
100
AcDbEntity
 67
     1
  8
0
100
AcDbBlockBegin
  2
*Paper_Space
 70
     0
 10
0.000000
 20
0.000000
 30
0.000000
  3
*Paper_Space
  1
 
  0
ENDBLK
  5
12c
330
12d
100
AcDbEntity
 67
     1
  8
0
100
AcDbBlockEnd
  0
ENDSEC
  0
SECTION
  2
ENTITIES
  0
LWPOLYLINE
  5
12f
100
AcDbEntity
  8
0
100
AcDbPolyline
 90
     6
 70
     1
 43
0.200000
 10
68.125000
 20
110.600000
 10
126.900000
 20
110.600000
 10
131.575000
 20
69.550000
 10
126.900000
 20
28.475000
 10
68.125000
 20
28.475000
 10
63.450000
 20
69.550000
  0
LINE
  5
13e
100
AcDbEntity
  8
0
370
    20
100
AcDbLine
 10
67.650000
 20
102.400000
 11
128.175000
 21
102.400000
  0
LINE
  5
141
100
AcDbEntity
  8
0
370
    20
100
AcDbLine
 10
68.175000
 20
35.475000
 11
127.650000
 21
35.475000
  0
LINE
  5
144
100
AcDbEntity
  8
0
370
    20
100
AcDbLine
 10
67.125000
 20
39.200000
 11
128.175000
 21
39.200000
  0
LINE
  5
147
100
AcDbEntity
  8
0
370
    20
100
AcDbLine
 10
66.575000
 20
43.975000
 11
129.250000
 21
43.975000
  0
LINE
  5
14a
100
AcDbEntity
  8
0
370
    20
100
AcDbLine
 10
66.575000
 20
97.625000
 11
129.250000
 21
97.625000
  0
LINE
  5
14d
100
AcDbEntity
  8
0
370
    20
100
AcDbLine
 10
66.075000
 20
92.825000
 11
129.750000
 21
92.825000
  0
LINE
  5
150
100
AcDbEntity
  8
0
370
    20
100
AcDbLine
 10
65.500000
 20
83.300000
 11
130.325000
 21
83.300000
  0
LINE
  5
153
100
AcDbEntity
  8
0
370
    20
100
AcDbLine
 10
65.000000
 20
87.000000
 11
130.325000
 21
87.000000
  0
LINE
  5
156
100
AcDbEntity
  8
0
370
    20
100
AcDbLine
 10
66.075000
 20
48.775000
 11
129.750000
 21
48.775000
  0
LINE
  5
159
100
AcDbEntity
  8
0
370
    20
100
AcDbLine
 10
65.500000
 20
53.025000
 11
130.325000
 21
53.025000
  0
SPLINE
  5
15c
100
AcDbEntity
  8
0
370
    20
100
AcDbSpline
210
0.000000
220
0.000000
230
1.000000
 70
     9
 71
     3
 72
    38
 73
    34
 74
     0
 42
0.0000001
 43
0.0000001
 44
0.0000000001
 40
0.000000
 40
0.000000
 40
0.000000
 40
0.000000
 40
2.275000
 40
2.275000
 40
2.275000
 40
4.275000
 40
4.275000
 40
4.275000
 40
6.550000
 40
6.550000
 40
6.550000
 40
8.543897
 40
8.543897
 40
8.543897
 40
10.537794
 40
10.537794
 40
10.537794
 40
11.926363
 40
11.926363
 40
11.926363
 40
15.376363
 40
15.376363
 40
15.376363
 40
17.376363
 40
17.376363
 40
17.376363
 40
18.626363
 40
18.626363
 40
18.626363
 40
19.657140
 40
19.657140
 40
19.657140
 40
21.651037
 40
21.651037
 40
21.651037
 40
21.651037
 10
101.800000
 20
45.550000
 30
0.000000
 10
101.800000
 20
45.550000
 30
0.000000
 10
99.525000
 20
45.550000
 30
0.000000
 10
99.525000
 20
45.550000
 30
0.000000
 10
99.525000
 20
45.550000
 30
0.000000
 10
99.525000
 20
47.550000
 30
0.000000
 10
99.525000
 20
47.550000
 30
0.000000
 10
99.525000
 20
47.550000
 30
0.000000
 10
101.800000
 20
47.550000
 30
0.000000
 10
101.800000
 20
47.550000
 30
0.000000
 10
102.125000
 20
48.150000
 30
0.000000
 10
102.825000
 20
48.550000
 30
0.000000
 10
103.525000
 20
48.550000
 30
0.000000
 10
104.225000
 20
48.550000
 30
0.000000
 10
104.925000
 20
48.150000
 30
0.000000
 10
105.250000
 20
47.550000
 30
0.000000
 10
105.250000
 20
47.550000
 30
0.000000
 10
105.125000
 20
47.200000
 30
0.000000
 10
106.525000
 20
47.000000
 30
0.000000
 10
107.150000
 20
46.075000
 30
0.000000
 10
106.525000
 20
43.550000
 30
0.000000
 10
106.525000
 20
43.550000
 30
0.000000
 10
106.525000
 20
43.550000
 30
0.000000
 10
104.550000
 20
43.500000
 30
0.000000
 10
104.525000
 20
43.550000
 30
0.000000
 10
104.500000
 20
43.625000
 30
0.000000
 10
104.525000
 20
44.800000
 30
0.000000
 10
104.525000
 20
44.800000
 30
0.000000
 10
104.300000
 20
44.925000
 30
0.000000
 10
104.400000
 20
44.550000
 30
0.000000
 10
103.525000
 20
44.550000
 30
0.000000
 10
102.825000
 20
44.550000
 30
0.000000
 10
102.125000
 20
44.950000
 30
0.000000
 10
101.800000
 20
45.550000
 30
0.000000
  0
LWPOLYLINE
  5
15f
100
AcDbEntity
  8
0
100
AcDbPolyline
 90
     4
 70
     1
 43
0.200000
 10
102.750000
 20
50.025000
 10
109.100000
 20
50.025000
 10
109.100000
 20
49.350000
 10
102.750000
 20
49.350000
  0
LWPOLYLINE
  5
16a
100
AcDbEntity
  8
0
100
AcDbPolyline
 90
     4
 70
     1
 43
0.200000
 10
102.425000
 20
49.150000
 10
104.425000
 20
49.150000
 10
104.425000
 20
48.475000
 10
102.425000
 20
48.475000
  0
ARC
  5
175
100
AcDbEntity
  8
0
370
    40
100
AcDbCircle
 10
97.375000
 20
206.750000
 40
33.200000
100
AcDbArc
 50
205.500000
 51
193.531250
  0
ARC
  5
178
100
AcDbEntity
  8
0
370
    40
100
AcDbCircle
 10
97.675000
 20
207.225000
 40
29.575000
100
AcDbArc
 50
343.812500
 51
196.187500
  0
ARC
  5
17b
100
AcDbEntity
  8
0
370
    40
100
AcDbCircle
 10
97.675000
 20
207.225000
 40
29.575000
100
AcDbArc
 50
240.812500
 51
298.046875
  0
CIRCLE
  5
17e
100
AcDbEntity
  8
0
370
    40
100
AcDbCircle
 10
96.650000
 20
229.100000
 40
3.125000
  0
SPLINE
  5
181
100
AcDbEntity
  8
0
370
    20
100
AcDbSpline
210
0.000000
220
0.000000
230
1.000000
 70
     8
 71
     3
 72
    23
 73
    19
 74
     0
 42
0.0000001
 43
0.0000001
 44
0.0000000001
 40
0.000000
 40
0.000000
 40
0.000000
 40
0.000000
 40
0.127475
 40
0.127475
 40
0.127475
 40
4.398673
 40
4.398673
 40
4.398673
 40
8.798673
 40
8.798673
 40
8.798673
 40
13.716815
 40
13.716815
 40
13.716815
 40
17.670453
 40
17.670453
 40
17.670453
 40
17.921700
 40
17.921700
 40
17.921700
 40
17.921700
 10
42.275000
 20
93.475000
 30
0.000000
 10
42.250000
 20
93.525000
 30
0.000000
 10
42.275000
 20
93.550000
 30
0.000000
 10
42.250000
 20
93.600000
 30
0.000000
 10
41.400000
 20
94.075000
 30
0.000000
 10
38.000000
 20
94.025000
 30
0.000000
 10
38.000000
 20
94.025000
 30
0.000000
 10
38.000000
 20
94.025000
 30
0.000000
 10
38.000000
 20
98.425000
 30
0.000000
 10
38.000000
 20
98.425000
 30
0.000000
 10
38.000000
 20
98.425000
 30
0.000000
 10
42.025000
 20
98.300000
 30
0.000000
 10
42.750000
 20
97.150000
 30
0.000000
 10
44.725000
 20
95.175000
 30
0.000000
 10
44.725000
 20
93.725000
 30
0.000000
 10
44.725000
 20
93.725000
 30
0.000000
 10
44.725000
 20
93.725000
 30
0.000000
 10
44.700000
 20
93.625000
 30
0.000000
 10
44.700000
 20
93.475000
 30
0.000000
  0
LWPOLYLINE
  5
184
100
AcDbEntity
  8
0
  6
CONTINUOUS
 62
   172
100
AcDbPolyline
 90
     4
 70
     1
 43
0.200000
 10
41.775000
 20
93.475000
 10
45.025000
 20
93.475000
 10
45.025000
 20
92.450000
 10
41.775000
 20
92.450000
  0
LWPOLYLINE
  5
18f
100
AcDbEntity
  8
0
  6
CONTINUOUS
 62
   172
100
AcDbPolyline
 90
     4
 70
     1
 43
0.200000
 10
42.350000
 20
92.375000
 10
44.550000
 20
92.375000
 10
44.550000
 20
69.075000
 10
42.350000
 20
69.075000
  0
LWPOLYLINE
  5
19a
100
AcDbEntity
  8
0
  6
CONTINUOUS
 62
   172
100
AcDbPolyline
 90
     4
 70
     1
 43
0.200000
 10
42.125000
 20
69.075000
 10
44.725000
 20
69.075000
 10
44.725000
 20
65.700000
 10
42.125000
 20
65.700000
  0
LINE
  5
1a5
100
AcDbEntity
  8
0
  6
CONTINUOUS
 62
   172
370
    20
100
AcDbLine
 10
44.475000
 20
92.050000
 11
42.250000
 21
91.650000
  0
LINE
  5
1a8
100
AcDbEntity
  8
0
  6
CONTINUOUS
 62
   172
370
    20
100
AcDbLine
 10
44.550000
 20
91.425000
 11
42.325000
 21
91.025000
  0
LINE
  5
1ab
100
AcDbEntity
  8
0
  6
CONTINUOUS
 62
   172
370
    20
100
AcDbLine
 10
44.550000
 20
90.325000
 11
42.325000
 21
89.925000
  0
LINE
  5
1ae
100
AcDbEntity
  8
0
  6
CONTINUOUS
 62
   172
370
    20
100
AcDbLine
 10
44.550000
 20
89.225000
 11
42.325000
 21
88.825000
  0
LINE
  5
1b1
100
AcDbEntity
  8
0
  6
CONTINUOUS
 62
   172
370
    20
100
AcDbLine
 10
44.550000
 20
88.100000
 11
42.325000
 21
87.700000
  0
LINE
  5
1b4
100
AcDbEntity
  8
0
  6
CONTINUOUS
 62
   172
370
    20
100
AcDbLine
 10
44.550000
 20
87.000000
 11
42.325000
 21
86.600000
  0
LINE
  5
1b7
100
AcDbEntity
  8
0
  6
CONTINUOUS
 62
   172
370
    20
100
AcDbLine
 10
44.550000
 20
85.900000
 11
42.325000
 21
85.500000
  0
LINE
  5
1ba
100
AcDbEntity
  8
0
  6
CONTINUOUS
 62
   172
370
    20
100
AcDbLine
 10
44.550000
 20
84.775000
 11
42.325000
 21
84.375000
  0
LINE
  5
1bd
100
AcDbEntity
  8
0
  6
CONTINUOUS
 62
   172
370
    20
100
AcDbLine
 10
44.550000
 20
83.675000
 11
42.325000
 21
83.275000
  0
LINE
  5
1c0
100
AcDbEntity
  8
0
  6
CONTINUOUS
 62
   172
370
    20
100
AcDbLine
 10
44.550000
 20
82.575000
 11
42.325000
 21
82.175000
  0
LINE
  5
1c3
100
AcDbEntity
  8
0
  6
CONTINUOUS
 62
   172
370
    20
100
AcDbLine
 10
44.550000
 20
81.450000
 11
42.325000
 21
81.050000
  0
LINE
  5
1c6
100
AcDbEntity
  8
0
  6
CONTINUOUS
 62
   172
370
    20
100
AcDbLine
 10
44.550000
 20
80.350000
 11
42.325000
 21
79.950000
  0
LINE
  5
1c9
100
AcDbEntity
  8
0
  6
CONTINUOUS
 62
   172
370
    20
100
AcDbLine
 10
44.550000
 20
79.250000
 11
42.325000
 21
78.850000
  0
LINE
  5
1cc
100
AcDbEntity
  8
0
  6
CONTINUOUS
 62
   172
370
    20
100
AcDbLine
 10
44.550000
 20
78.125000
 11
42.325000
 21
77.700000
  0
LINE
  5
1cf
100
AcDbEntity
  8
0
  6
CONTINUOUS
 62
   172
370
    20
100
AcDbLine
 10
44.550000
 20
77.025000
 11
42.325000
 21
76.625000
  0
LINE
  5
1d2
100
AcDbEntity
  8
0
  6
CONTINUOUS
 62
   172
370
    20
100
AcDbLine
 10
44.550000
 20
75.925000
 11
42.325000
 21
75.525000
  0
LINE
  5
1d5
100
AcDbEntity
  8
0
  6
CONTINUOUS
 62
   172
370
    20
100
AcDbLine
 10
44.550000
 20
74.775000
 11
42.325000
 21
74.375000
  0
LINE
  5
1d8
100
AcDbEntity
  8
0
  6
CONTINUOUS
 62
   172
370
    20
100
AcDbLine
 10
44.550000
 20
73.675000
 11
42.325000
 21
73.275000
  0
LINE
  5
1db
100
AcDbEntity
  8
0
  6
CONTINUOUS
 62
   172
370
    20
100
AcDbLine
 10
44.550000
 20
72.600000
 11
42.325000
 21
72.175000
  0
LINE
  5
1de
100
AcDbEntity
  8
0
  6
CONTINUOUS
 62
   172
370
    20
100
AcDbLine
 10
44.550000
 20
71.450000
 11
42.325000
 21
71.050000
  0
LINE
  5
1e1
100
AcDbEntity
  8
0
  6
CONTINUOUS
 62
   172
370
    20
100
AcDbLine
 10
44.550000
 20
70.350000
 11
42.325000
 21
69.950000
  0
LINE
  5
1e4
100
AcDbEntity
  8
0
  6
CONTINUOUS
 62
   172
370
    20
100
AcDbLine
 10
44.575000
 20
69.225000
 11
42.350000
 21
68.825000
  0
SPLINE
  5
1e7
100
AcDbEntity
  8
0
  6
CONTINUOUS
 62
   172
370
    20
100
AcDbSpline
210
0.000000
220
0.000000
230
1.000000
 70
     9
 71
     3
 72
    29
 73
    25
 74
     0
 42
0.0000001
 43
0.0000001
 44
0.0000000001
 40
0.000000
 40
0.000000
 40
0.000000
 40
0.000000
 40
0.075000
 40
0.075000
 40
0.075000
 40
2.844138
 40
2.844138
 40
2.844138
 40
3.619138
 40
3.619138
 40
3.619138
 40
6.363450
 40
6.363450
 40
6.363450
 40
6.438450
 40
6.438450
 40
6.438450
 40
9.182763
 40
9.182763
 40
9.182763
 40
9.957763
 40
9.957763
 40
9.957763
 40
12.726901
 40
12.726901
 40
12.726901
 40
12.726901
 10
39.100000
 20
99.225000
 30
0.000000
 10
39.100000
 20
99.225000
 30
0.000000
 10
39.175000
 20
99.225000
 30
0.000000
 10
39.175000
 20
99.225000
 30
0.000000
 10
39.350000
 20
99.225000
 30
0.000000
 10
39.500000
 20
97.975000
 30
0.000000
 10
39.500000
 20
96.475000
 30
0.000000
 10
39.500000
 20
96.475000
 30
0.000000
 10
39.500000
 20
95.700000
 30
0.000000
 10
39.500000
 20
95.700000
 30
0.000000
 10
39.500000
 20
94.200000
 30
0.000000
 10
39.350000
 20
92.975000
 30
0.000000
 10
39.175000
 20
92.975000
 30
0.000000
 10
39.175000
 20
92.975000
 30
0.000000
 10
39.100000
 20
92.975000
 30
0.000000
 10
39.100000
 20
92.975000
 30
0.000000
 10
38.925000
 20
92.975000
 30
0.000000
 10
38.775000
 20
94.200000
 30
0.000000
 10
38.775000
 20
95.700000
 30
0.000000
 10
38.775000
 20
95.700000
 30
0.000000
 10
38.775000
 20
96.475000
 30
0.000000
 10
38.775000
 20
96.475000
 30
0.000000
 10
38.775000
 20
97.975000
 30
0.000000
 10
38.925000
 20
99.225000
 30
0.000000
 10
39.100000
 20
99.225000
 30
0.000000
  0
LWPOLYLINE
  5
1ea
100
AcDbEntity
  8
0
100
AcDbPolyline
 90
     4
 70
     1
 43
0.200000
 10
23.225000
 20
111.850000
 10
35.975000
 20
111.850000
 10
35.975000
 20
92.175000
 10
23.225000
 20
92.175000
  0
LWPOLYLINE
  5
1f5
100
AcDbEntity
  8
0
100
AcDbPolyline
 90
     4
 70
     1
 43
0.200000
 10
36.025000
 20
99.100000
 10
40.225000
 20
98.725000
 10
39.800000
 20
93.400000
 10
35.550000
 20
93.775000
  0
LWPOLYLINE
  5
200
100
AcDbEntity
  8
0
100
AcDbPolyline
 90
     4
 70
     1
 43
0.200000
 10
23.225000
 20
123.000000
 10
35.975000
 20
123.000000
 10
35.975000
 20
111.300000
 10
23.225000
 20
111.300000
  0
LWPOLYLINE
  5
20b
100
AcDbEntity
  8
0
100
AcDbPolyline
 90
     4
 70
     1
 43
0.200000
 10
23.225000
 20
110.775000
 10
23.225000
 20
112.900000
 10
35.975000
 20
112.900000
 10
35.975000
 20
110.775000
  0
LWPOLYLINE
  5
216
100
AcDbEntity
  8
0
  6
DOT
 62
     7
100
AcDbPolyline
 90
     4
 70
     1
 43
0.400000
 10
23.800000
 20
94.950000
 10
34.375000
 20
94.950000
 10
34.375000
 20
9.200000
 10
23.800000
 20
9.200000
  0
LWPOLYLINE
  5
221
100
AcDbEntity
  8
0
  6
DOT
 62
     7
100
AcDbPolyline
 90
     4
 70
     1
 43
0.400000
 10
23.875000
 20
160.625000
 10
34.925000
 20
160.625000
 10
34.925000
 20
123.100000
 10
23.875000
 20
123.100000
  0
LINE
  5
22c
100
AcDbEntity
  8
0
  6
DOT
 62
     7
370
    40
100
AcDbLine
 10
16.550000
 20
9.500000
 11
161.850000
 21
9.500000
  0
ELLIPSE
  5
22f
100
AcDbEntity
  8
0
370
    40
100
AcDbEllipse
 10
96.450000
 20
228.625000
 30
0.000000
 11
0.000000000000000
 21
2.150000
 31
0.000000
210
0.000000
220
0.000000
230
1.000000
 40
0.883721
 41
0.000000
 42
6.283185
  0
SPLINE
  5
232
100
AcDbEntity
  8
0
370
    20
100
AcDbSpline
210
0.000000
220
0.000000
230
1.000000
 70
     9
 71
     3
 72
    38
 73
    34
 74
     0
 42
0.0000001
 43
0.0000001
 44
0.0000000001
 40
0.000000
 40
0.000000
 40
0.000000
 40
0.000000
 40
2.275000
 40
2.275000
 40
2.275000
 40
4.275000
 40
4.275000
 40
4.275000
 40
6.550000
 40
6.550000
 40
6.550000
 40
8.543897
 40
8.543897
 40
8.543897
 40
10.537794
 40
10.537794
 40
10.537794
 40
11.926363
 40
11.926363
 40
11.926363
 40
15.376363
 40
15.376363
 40
15.376363
 40
17.376363
 40
17.376363
 40
17.376363
 40
18.626363
 40
18.626363
 40
18.626363
 40
19.657140
 40
19.657140
 40
19.657140
 40
21.651037
 40
21.651037
 40
21.651037
 40
21.651037
 10
94.425000
 20
171.500000
 30
0.000000
 10
94.425000
 20
171.500000
 30
0.000000
 10
94.425000
 20
173.775000
 30
0.000000
 10
94.425000
 20
173.775000
 30
0.000000
 10
94.425000
 20
173.775000
 30
0.000000
 10
96.425000
 20
173.775000
 30
0.000000
 10
96.425000
 20
173.775000
 30
0.000000
 10
96.425000
 20
173.775000
 30
0.000000
 10
96.425000
 20
171.500000
 30
0.000000
 10
96.425000
 20
171.500000
 30
0.000000
 10
97.025000
 20
171.175000
 30
0.000000
 10
97.425000
 20
170.475000
 30
0.000000
 10
97.425000
 20
169.775000
 30
0.000000
 10
97.425000
 20
169.075000
 30
0.000000
 10
97.025000
 20
168.375000
 30
0.000000
 10
96.425000
 20
168.050000
 30
0.000000
 10
96.425000
 20
168.050000
 30
0.000000
 10
96.075000
 20
168.175000
 30
0.000000
 10
95.875000
 20
166.775000
 30
0.000000
 10
94.950000
 20
166.150000
 30
0.000000
 10
92.425000
 20
166.775000
 30
0.000000
 10
92.425000
 20
166.775000
 30
0.000000
 10
92.425000
 20
166.775000
 30
0.000000
 10
92.375000
 20
168.750000
 30
0.000000
 10
92.425000
 20
168.775000
 30
0.000000
 10
92.500000
 20
168.800000
 30
0.000000
 10
93.675000
 20
168.775000
 30
0.000000
 10
93.675000
 20
168.775000
 30
0.000000
 10
93.800000
 20
169.000000
 30
0.000000
 10
93.425000
 20
168.900000
 30
0.000000
 10
93.425000
 20
169.775000
 30
0.000000
 10
93.425000
 20
170.475000
 30
0.000000
 10
93.825000
 20
171.175000
 30
0.000000
 10
94.425000
 20
171.500000
 30
0.000000
  0
LWPOLYLINE
  5
235
100
AcDbEntity
  8
0
100
AcDbPolyline
 90
     4
 70
     1
 43
0.200000
 10
98.900000
 20
170.550000
 10
98.900000
 20
164.200000
 10
98.225000
 20
164.200000
 10
98.225000
 20
170.550000
  0
LWPOLYLINE
  5
240
100
AcDbEntity
  8
0
100
AcDbPolyline
 90
     4
 70
     1
 43
0.200000
 10
98.025000
 20
170.875000
 10
98.025000
 20
168.875000
 10
97.350000
 20
168.875000
 10
97.350000
 20
170.875000
  0
LWPOLYLINE
  5
24b
100
AcDbEntity
  8
0
100
AcDbPolyline
 90
     3
 70
     0
 43
0.400000
 10
94.975000
 20
71.100000
 10
137.400000
 20
110.525000
 10
139.725000
 20
111.975000
  0
LWPOLYLINE
  5
254
100
AcDbEntity
  8
0
100
AcDbPolyline
 90
     2
 70
     0
 43
0.400000
 10
109.425000
 20
47.525000
 10
147.900000
 20
83.125000
  0
MTEXT
  5
25b
100
AcDbEntity
  8
0
100
AcDbMText
 10
46.000000
 20
152.275000
 40
3.168750
 41
42.250000
 71
     1
 72
     5
  1
\fＭＳ 明朝|b0|i0|c128|p17;\C7;\T1.0200;□雨水コレクタ\T1.0153;ー\C250;\T0.9100;\P\C7;\T1.0200;　ウィジーコレクタ\T1.0153;ー
 44
0.966489
 73
     1
  7
BIGFONT
  0
MTEXT
  5
25e
100
AcDbEntity
  8
0
100
AcDbMText
 10
139.300000
 20
113.525000
 40
3.168750
 41
50.700000
 71
     1
 72
     5
  1
\fＭＳ 明朝|b0|i0|c128|p17;\C7;\T1.0200;□リサイクル樽　\T1.0153;　\C250;\T0.9100;\P\C7;\T1.0200;□新樽\T1.0153;　\C250;\T0.9100;\P\C7;\T1.0200;容量\fTimes New Roman|b0|i0|c0|p18;180,230,250,45\T0.9067;0
 44
0.966489
 73
     1
  7
BIGFONT
  0
MTEXT
  5
261
100
AcDbEntity
  8
0
 62
   250
100
AcDbMText
 10
139.225000
 20
244.200000
 40
3.168750
 41
42.250000
 71
     1
 72
     5
  1
\fＭＳ 明朝|b0|i0|c128|p17;\T1.0200;洗浄用口　２０Ａ\P銅繊維投入口\PＳＵＳプラグ止め\P
 44
0.966489
 73
     1
  7
BIGFONT
  0
LINE
  5
264
100
AcDbEntity
  8
0
370
    40
100
AcDbLine
 10
61.350000
 20
232.675000
 11
61.350000
 21
227.850000
  0
CIRCLE
  5
267
100
AcDbEntity
  8
0
370
    40
100
AcDbCircle
 10
48.350000
 20
244.200000
 40
7.675000
  0
LWPOLYLINE
  5
26a
100
AcDbEntity
  8
0
100
AcDbPolyline
 90
     4
 70
     1
 43
0.400000
 10
45.400000
 20
237.050000
 10
50.525000
 20
237.050000
 10
50.525000
 20
232.250000
 10
45.400000
 20
232.250000
  0
SPLINE
  5
275
100
AcDbEntity
  8
0
370
    40
100
AcDbSpline
210
0.000000
220
0.000000
230
1.000000
 70
     8
 71
     3
 72
    23
 73
    19
 74
     0
 42
0.0000001
 43
0.0000001
 44
0.0000000001
 40
0.000000
 40
0.000000
 40
0.000000
 40
0.000000
 40
0.625000
 40
0.625000
 40
0.625000
 40
4.750303
 40
4.750303
 40
4.750303
 40
12.391393
 40
12.391393
 40
12.391393
 40
16.717043
 40
16.717043
 40
16.717043
 40
20.298680
 40
20.298680
 40
20.298680
 40
25.493208
 40
25.493208
 40
25.493208
 40
25.493208
 10
44.000000
 20
235.875000
 30
0.000000
 10
44.000000
 20
235.875000
 30
0.000000
 10
44.000000
 20
235.250000
 30
0.000000
 10
44.000000
 20
235.250000
 30
0.000000
 10
44.000000
 20
235.250000
 30
0.000000
 10
43.500000
 20
232.425000
 30
0.000000
 10
43.950000
 20
231.125000
 30
0.000000
 10
44.750000
 20
228.750000
 30
0.000000
 10
48.775000
 20
225.200000
 30
0.000000
 10
48.775000
 20
225.200000
 30
0.000000
 10
48.775000
 20
225.200000
 30
0.000000
 10
51.925000
 20
224.475000
 30
0.000000
 10
53.100000
 20
225.275000
 30
0.000000
 10
54.075000
 20
225.925000
 30
0.000000
 10
53.550000
 20
227.700000
 30
0.000000
 10
54.550000
 20
228.550000
 30
0.000000
 10
56.075000
 20
229.850000
 30
0.000000
 10
59.725000
 20
228.100000
 30
0.000000
 10
59.725000
 20
228.100000
 30
0.000000
  0
SPLINE
  5
278
100
AcDbEntity
  8
0
370
    40
100
AcDbSpline
210
0.000000
220
0.000000
230
1.000000
 70
     8
 71
     3
 72
    26
 73
    22
 74
     0
 42
0.0000001
 43
0.0000001
 44
0.0000000001
 40
0.000000
 40
0.000000
 40
0.000000
 40
0.000000
 40
0.300000
 40
0.300000
 40
0.300000
 40
4.900000
 40
4.900000
 40
4.900000
 40
7.275395
 40
7.275395
 40
7.275395
 40
9.650789
 40
9.650789
 40
9.650789
 40
14.400592
 40
14.400592
 40
14.400592
 40
16.357152
 40
16.357152
 40
16.357152
 40
20.257152
 40
20.257152
 40
20.257152
 40
20.257152
 10
51.150000
 20
235.875000
 30
0.000000
 10
51.150000
 20
235.875000
 30
0.000000
 10
51.150000
 20
235.575000
 30
0.000000
 10
51.150000
 20
235.575000
 30
0.000000
 10
51.150000
 20
235.575000
 30
0.000000
 10
51.150000
 20
230.975000
 30
0.000000
 10
51.150000
 20
230.975000
 30
0.000000
 10
51.150000
 20
230.975000
 30
0.000000
 10
49.350000
 20
229.425000
 30
0.000000
 10
49.350000
 20
229.425000
 30
0.000000
 10
49.350000
 20
229.425000
 30
0.000000
 10
51.150000
 20
227.875000
 30
0.000000
 10
51.150000
 20
227.875000
 30
0.000000
 10
51.150000
 20
227.875000
 30
0.000000
 10
52.425000
 20
231.000000
 30
0.000000
 10
53.750000
 20
231.850000
 30
0.000000
 10
54.275000
 20
232.200000
 30
0.000000
 10
55.675000
 20
232.200000
 30
0.000000
 10
55.675000
 20
232.200000
 30
0.000000
 10
55.675000
 20
232.200000
 30
0.000000
 10
59.575000
 20
232.200000
 30
0.000000
 10
59.575000
 20
232.200000
 30
0.000000
  0
LWPOLYLINE
  5
27b
100
AcDbEntity
  8
0
100
AcDbPolyline
 90
     3
 70
     0
 43
0.400000
 10
43.975000
 20
235.950000
 10
51.575000
 20
235.950000
 10
51.275000
 20
235.950000
  0
LWPOLYLINE
  5
284
100
AcDbEntity
  8
0
100
AcDbPolyline
 90
     2
 70
     0
 43
0.400000
 10
50.275000
 20
228.450000
 10
47.800000
 20
225.925000
  0
CIRCLE
  5
28b
100
AcDbEntity
  8
0
370
    40
100
AcDbCircle
 10
48.300000
 20
244.200000
 40
6.875000
  0
LINE
  5
28e
100
AcDbEntity
  8
0
370
    40
100
AcDbLine
 10
59.075000
 20
232.125000
 11
59.075000
 21
228.100000
  0
LWPOLYLINE
  5
291
100
AcDbEntity
  8
0
100
AcDbPolyline
 90
     4
 70
     1
 43
0.400000
 10
59.650000
 20
232.900000
 10
60.600000
 20
232.900000
 10
60.600000
 20
227.150000
 10
59.650000
 20
227.150000
  0
LINE
  5
29c
100
AcDbEntity
  8
0
370
    40
100
AcDbLine
 10
56.700000
 20
232.350000
 11
56.700000
 21
228.950000
  0
LINE
  5
29f
100
AcDbEntity
  8
0
370
    40
100
AcDbLine
 10
56.700000
 20
228.950000
 11
55.100000
 21
231.975000
  0
LINE
  5
2a2
100
AcDbEntity
  8
0
370
    40
100
AcDbLine
 10
55.250000
 20
228.950000
 11
53.600000
 21
231.125000
  0
LINE
  5
2a5
100
AcDbEntity
  8
0
370
    40
100
AcDbLine
 10
53.950000
 20
228.150000
 11
52.800000
 21
229.250000
  0
LINE
  5
2a8
100
AcDbEntity
  8
0
370
    40
100
AcDbLine
 10
53.250000
 20
227.450000
 11
51.575000
 21
228.375000
  0
LINE
  5
2ab
100
AcDbEntity
  8
0
370
    40
100
AcDbLine
 10
50.850000
 20
227.500000
 11
50.500000
 21
225.125000
  0
LINE
  5
2ae
100
AcDbEntity
  8
0
370
    40
100
AcDbLine
 10
52.650000
 20
225.350000
 11
51.300000
 21
228.025000
  0
LWPOLYLINE
  5
2b1
100
AcDbEntity
  8
0
100
AcDbPolyline
 90
     4
 70
     1
 43
0.400000
 10
42.550000
 20
234.775000
 10
51.950000
 20
234.775000
 10
51.950000
 20
233.825000
 10
42.550000
 20
233.825000
  0
LINE
  5
2bc
100
AcDbEntity
  8
0
370
    40
100
AcDbLine
 10
133.800000
 20
240.225000
 11
99.775000
 21
229.350000
  0
LWPOLYLINE
  5
2bf
100
AcDbEntity
  8
0
100
AcDbPolyline
 90
     3
 70
     0
 43
0.400000
 10
102.000000
 20
231.275000
 10
99.775000
 20
229.350000
 10
102.700000
 20
229.100000
  0
MTEXT
  5
2c8
100
AcDbEntity
  8
0
100
AcDbMText
 10
150.000000
 20
85.300000
 40
3.168750
 41
38.025000
 71
     1
 72
     5
  1
\fＭＳ 明朝|b0|i0|c128|p17;\C7;\T1.0200;□砲金カラン２０\T1.0153;Ａ\C250;\T0.9100;\P\C7;\T1.0200;□鍵付き水\T1.0153;栓
 44
0.966489
 73
     1
  7
BIGFONT
  0
LINE
  5
2cb
100
AcDbEntity
  8
0
370
    40
100
AcDbLine
 10
68.150000
 20
12.575000
 11
68.150000
 21
27.250000
  0
LINE
  5
2ce
100
AcDbEntity
  8
0
370
    40
100
AcDbLine
 10
126.075000
 20
12.575000
 11
126.075000
 21
28.675000
  0
LWPOLYLINE
  5
2d1
100
AcDbEntity
  8
0
  6
CONTINUOUS
 62
   172
100
AcDbPolyline
 90
     4
 70
     1
 43
0.200000
 10
97.700000
 20
32.525000
 10
97.700000
 20
28.525000
 10
95.075000
 20
28.525000
 10
95.075000
 20
32.525000
  0
LWPOLYLINE
  5
2dc
100
AcDbEntity
  8
0
  6
CONTINUOUS
 62
   172
100
AcDbPolyline
 90
     4
 70
     1
 43
0.200000
 10
98.250000
 20
28.475000
 10
98.250000
 20
26.275000
 10
94.525000
 20
26.275000
 10
94.525000
 20
28.475000
  0
LWPOLYLINE
  5
2e7
100
AcDbEntity
  8
0
  6
CONTINUOUS
 62
   172
100
AcDbPolyline
 90
     4
 70
     1
 43
0.200000
 10
98.525000
 20
26.200000
 10
98.525000
 20
25.725000
 10
94.275000
 20
25.725000
 10
94.275000
 20
26.200000
  0
LINE
  5
2f2
100
AcDbEntity
  8
0
370
    40
100
AcDbLine
 10
125.525000
 20
25.175000
 11
157.900000
 21
42.150000
  0
LWPOLYLINE
  5
2f5
100
AcDbEntity
  8
0
100
AcDbPolyline
 90
     3
 70
     0
 43
0.400000
 10
127.425000
 20
27.500000
 10
125.525000
 20
25.175000
 10
128.500000
 20
25.450000
  0
LWPOLYLINE
  5
2fe
100
AcDbEntity
  8
0
100
AcDbPolyline
 90
     2
 70
     0
 43
0.400000
 10
72.550000
 20
100.125000
 10
66.950000
 20
100.125000
  0
LWPOLYLINE
  5
305
100
AcDbEntity
  8
0
100
AcDbPolyline
 90
     3
 70
     0
 43
0.400000
 10
66.575000
 20
96.875000
 10
71.950000
 20
96.875000
 10
71.950000
 20
96.575000
  0
LWPOLYLINE
  5
30e
100
AcDbEntity
  8
0
100
AcDbPolyline
 90
     4
 70
     0
 43
0.400000
 10
62.500000
 20
9.300000
 10
68.125000
 20
28.475000
 10
127.525000
 20
28.475000
 10
132.000000
 20
7.950000
  0
LWPOLYLINE
  5
319
100
AcDbEntity
  8
0
100
AcDbPolyline
 90
     2
 70
     0
 43
0.400000
 10
132.000000
 20
7.950000
 10
120.800000
 20
29.025000
  0
LWPOLYLINE
  5
320
100
AcDbEntity
  8
0
100
AcDbPolyline
 90
     2
 70
     0
 43
0.400000
 10
62.500000
 20
9.300000
 10
75.500000
 20
28.575000
  0
LWPOLYLINE
  5
327
100
AcDbEntity
  8
0
100
AcDbPolyline
 90
     4
 70
     0
 43
0.400000
 10
74.550000
 20
182.625000
 10
65.725000
 20
173.800000
 10
62.250000
 20
177.300000
 10
71.225000
 20
186.275000
  0
LWPOLYLINE
  5
332
100
AcDbEntity
  8
0
100
AcDbPolyline
 90
     4
 70
     1
 43
0.400000
 10
116.500000
 20
231.350000
 10
127.900000
 20
242.750000
 10
131.375000
 20
239.250000
 10
119.975000
 20
227.850000
  0
LWPOLYLINE
  5
33d
100
AcDbEntity
  8
0
100
AcDbPolyline
 90
     4
 70
     1
 43
0.400000
 10
78.775000
 20
230.950000
 10
67.375000
 20
242.350000
 10
63.900000
 20
238.850000
 10
75.300000
 20
227.450000
  0
LWPOLYLINE
  5
348
100
AcDbEntity
  8
0
100
AcDbPolyline
 90
     4
 70
     0
 43
0.400000
 10
119.350000
 20
182.650000
 10
129.475000
 20
172.525000
 10
132.950000
 20
176.025000
 10
121.550000
 20
187.425000
  0
CIRCLE
  5
353
100
AcDbEntity
  8
0
370
    40
100
AcDbCircle
 10
65.225000
 20
176.775000
 40
2.225000
  0
CIRCLE
  5
356
100
AcDbEntity
  8
0
370
    40
100
AcDbCircle
 10
128.900000
 20
176.575000
 40
2.225000
  0
CIRCLE
  5
359
100
AcDbEntity
  8
0
370
    40
100
AcDbCircle
 10
67.875000
 20
239.325000
 40
2.225000
  0
LWPOLYLINE
  5
35c
100
AcDbEntity
  8
0
100
AcDbPolyline
 90
     3
 70
     0
 43
0.400000
 10
44.725000
 20
67.375000
 10
44.725000
 20
61.300000
 10
64.750000
 20
61.300000
  0
LWPOLYLINE
  5
365
100
AcDbEntity
  8
0
100
AcDbPolyline
 90
     3
 70
     0
 43
0.400000
 10
64.750000
 20
57.725000
 10
42.325000
 20
57.725000
 10
42.325000
 20
67.150000
  0
LWPOLYLINE
  5
36e
100
AcDbEntity
  8
0
100
AcDbPolyline
 90
     3
 70
     0
 43
0.400000
 10
61.350000
 20
232.675000
 10
67.425000
 20
232.675000
 10
72.875000
 20
227.225000
  0
LWPOLYLINE
  5
377
100
AcDbEntity
  8
0
100
AcDbPolyline
 90
     3
 70
     0
 43
0.400000
 10
61.350000
 20
230.250000
 10
66.100000
 20
230.250000
 10
70.450000
 20
225.900000
  0
LINE
  5
380
100
AcDbEntity
  8
0
370
    40
100
AcDbLine
 10
52.625000
 20
9.750000
 11
52.625000
 21
26.775000
  0
LWPOLYLINE
  5
383
100
AcDbEntity
  8
0
100
AcDbPolyline
 90
     3
 70
     0
 43
0.400000
 10
53.750000
 20
24.025000
 10
52.625000
 20
26.775000
 10
51.475000
 20
24.025000
  0
LWPOLYLINE
  5
38c
100
AcDbEntity
  8
0
100
AcDbPolyline
 90
     3
 70
     0
 43
0.400000
 10
51.475000
 20
12.525000
 10
52.625000
 20
9.750000
 10
53.750000
 20
12.525000
  0
MTEXT
  5
395
100
AcDbEntity
  8
0
100
AcDbMText
 10
39.200000
 20
20.500000
 40
2.775000
 41
29.600000
 71
     1
 72
     5
  1
\f小塚ゴシック Pro L|b0|i0|c128|p18;\T1.0200;１５０～４００㎜
 44
1.004271
 73
     1
  7
BIGFONT
  0
LINE
  5
398
100
AcDbEntity
  8
0
370
    40
100
AcDbLine
 10
58.925000
 20
26.775000
 11
45.900000
 21
26.775000
  0
LINE
  5
39b
100
AcDbEntity
  8
0
370
    40
100
AcDbLine
 10
127.975000
 20
21.400000
 11
142.775000
 21
21.400000
  0
LWPOLYLINE
  5
39e
100
AcDbEntity
  8
0
100
AcDbPolyline
 90
     3
 70
     0
 43
0.400000
 10
130.725000
 20
22.550000
 10
127.975000
 20
21.400000
 10
130.725000
 20
20.275000
  0
MTEXT
  5
3a7
100
AcDbEntity
  8
0
100
AcDbMText
 10
146.350000
 20
29.475000
 40
2.775000
 41
40.700000
 71
     1
 72
     5
  1
\f小塚ゴシック Pro L|b0|i0|c128|p18;\T1.0200;架台は特注にて制作するため高さ、足の幅等は調整可能
 44
1.004271
 73
     1
  7
BIGFONT
  0
LINE
  5
3aa
100
AcDbEntity
  8
0
370
     0
100
AcDbLine
 10
95.025000
 20
141.350000
 11
105.575000
 21
141.350000
  0
LINE
  5
3ad
100
AcDbEntity
  8
0
370
     0
100
AcDbLine
 10
112.725000
 20
147.575000
 11
120.200000
 21
134.525000
  0
LINE
  5
3b0
100
AcDbEntity
  8
0
370
     0
100
AcDbLine
 10
114.175000
 20
144.150000
 11
119.800000
 21
134.325000
  0
LINE
  5
3b3
100
AcDbEntity
  8
0
370
     0
100
AcDbLine
 10
110.475000
 20
145.125000
 11
118.250000
 21
132.775000
  0
LINE
  5
3b6
100
AcDbEntity
  8
0
370
     0
100
AcDbLine
 10
100.550000
 20
148.800000
 11
100.150000
 21
141.350000
  0
LINE
  5
3b9
100
AcDbEntity
  8
0
370
     0
100
AcDbLine
 10
101.475000
 20
148.750000
 11
101.050000
 21
141.350000
  0
LINE
  5
3bc
100
AcDbEntity
  8
0
370
     0
100
AcDbLine
 10
95.475000
 20
141.250000
 11
95.475000
 21
139.675000
  0
ELLIPSE
  5
3bf
100
AcDbEntity
  8
0
370
     0
100
AcDbEllipse
 10
96.100000
 20
138.275000
 30
0.000000
 11
1.575000
 21
-0.000000000000000
 31
0.000000
210
0.000000
220
0.000000
230
1.000000
 40
0.920635
 41
2.040194
 42
3.224428
  0
LINE
  5
3c2
100
AcDbEntity
  8
0
370
     0
100
AcDbLine
 10
90.175000
 20
132.475000
 11
94.025000
 21
132.225000
  0
LINE
  5
3c5
100
AcDbEntity
  8
0
370
     0
100
AcDbLine
 10
90.050000
 20
132.475000
 11
89.975000
 21
129.975000
  0
LINE
  5
3c8
100
AcDbEntity
  8
0
370
     0
100
AcDbLine
 10
89.775000
 20
129.975000
 11
93.850000
 21
129.750000
  0
LINE
  5
3cb
100
AcDbEntity
  8
0
370
     0
100
AcDbLine
 10
93.650000
 20
129.800000
 11
94.025000
 21
132.225000
  0
LINE
  5
3ce
100
AcDbEntity
  8
0
370
     0
100
AcDbLine
 10
80.950000
 20
129.575000
 11
81.250000
 21
125.400000
  0
LINE
  5
3d1
100
AcDbEntity
  8
0
370
     0
100
AcDbLine
 10
81.250000
 20
125.700000
 11
89.725000
 21
125.875000
  0
LINE
  5
3d4
100
AcDbEntity
  8
0
370
     0
100
AcDbLine
 10
104.325000
 20
131.475000
 11
104.325000
 21
127.625000
  0
LINE
  5
3d7
100
AcDbEntity
  8
0
370
     0
100
AcDbLine
 10
95.525000
 20
131.350000
 11
95.525000
 21
118.225000
  0
LINE
  5
3da
100
AcDbEntity
  8
0
370
     0
100
AcDbLine
 10
99.825000
 20
141.350000
 11
99.825000
 21
112.625000
  0
LINE
  5
3dd
100
AcDbEntity
  8
0
370
     0
100
AcDbLine
 10
106.275000
 20
137.625000
 11
105.325000
 21
132.300000
  0
LINE
  5
3e0
100
AcDbEntity
  8
0
370
     0
100
AcDbLine
 10
99.825000
 20
131.925000
 11
104.825000
 21
131.925000
  0
LINE
  5
3e3
100
AcDbEntity
  8
0
370
     0
100
AcDbLine
 10
99.825000
 20
127.625000
 11
104.325000
 21
127.625000
  0
LINE
  5
3e6
100
AcDbEntity
  8
0
370
     0
100
AcDbLine
 10
99.825000
 20
127.050000
 11
104.325000
 21
127.050000
  0
LINE
  5
3e9
100
AcDbEntity
  8
0
370
     0
100
AcDbLine
 10
99.825000
 20
126.500000
 11
104.325000
 21
126.500000
  0
ELLIPSE
  5
3ec
100
AcDbEntity
  8
0
370
     0
100
AcDbEllipse
 10
101.025000
 20
150.500000
 30
0.000000
 11
1.375000
 21
-0.000000000000000
 31
0.000000
210
0.000000
220
0.000000
230
1.000000
 40
0.909091
 41
0.000000
 42
6.283185
  0
ELLIPSE
  5
3ef
100
AcDbEntity
  8
0
370
     0
100
AcDbEllipse
 10
138.100000
 20
120.150000
 30
0.000000
 11
1.150000
 21
-0.000000000000000
 31
0.000000
210
0.000000
220
0.000000
230
1.000000
 40
0.934783
 41
0.000000
 42
6.283185
  0
ELLIPSE
  5
3f2
100
AcDbEntity
  8
0
370
     0
100
AcDbEllipse
 10
138.100000
 20
120.150000
 30
0.000000
 11
1.625000
 21
-0.000000000000000
 31
0.000000
210
0.000000
220
0.000000
230
1.000000
 40
0.923077
 41
3.025010
 42
0.914253
  0
LINE
  5
3f5
100
AcDbEntity
  8
0
370
     0
100
AcDbLine
 10
110.350000
 20
144.525000
 11
117.525000
 21
132.875000
  0
LINE
  5
3f8
100
AcDbEntity
  8
0
370
     0
100
AcDbLine
 10
107.300000
 20
146.475000
 11
106.525000
 21
142.525000
  0
ELLIPSE
  5
3fb
100
AcDbEntity
  8
0
370
     0
100
AcDbEllipse
 10
104.850000
 20
142.775000
 30
0.000000
 11
1.700000
 21
-0.000000000000000
 31
0.000000
210
0.000000
220
0.000000
230
1.000000
 40
0.926471
 41
5.154175
 42
6.126719
  0
ELLIPSE
  5
3fe
100
AcDbEntity
  8
0
370
     0
100
AcDbEllipse
 10
109.000000
 20
146.400000
 30
0.000000
 11
1.375000
 21
-0.000000000000000
 31
0.000000
210
0.000000
220
0.000000
230
1.000000
 40
0.909091
 41
0.000000
 42
6.283185
  0
ELLIPSE
  5
401
100
AcDbEntity
  8
0
370
     0
100
AcDbEllipse
 10
109.000000
 20
146.400000
 30
0.000000
 11
1.700000
 21
-0.000000000000000
 31
0.000000
210
0.000000
220
0.000000
230
1.000000
 40
0.926471
 41
5.930370
 42
3.095573
  0
LINE
  5
404
100
AcDbEntity
  8
0
370
     0
100
AcDbLine
 10
110.650000
 20
145.850000
 11
109.200000
 21
138.525000
  0
LINE
  5
407
100
AcDbEntity
  8
0
370
     0
100
AcDbLine
 10
107.625000
 20
146.475000
 11
106.900000
 21
142.875000
  0
LINE
  5
40a
100
AcDbEntity
  8
0
370
     0
100
AcDbLine
 10
108.625000
 20
145.125000
 11
108.175000
 21
142.575000
  0
LINE
  5
40d
100
AcDbEntity
  8
0
370
     0
100
AcDbLine
 10
109.050000
 20
145.050000
 11
108.450000
 21
142.500000
  0
LINE
  5
410
100
AcDbEntity
  8
0
370
     0
100
AcDbLine
 10
107.125000
 20
143.725000
 11
108.375000
 21
143.800000
  0
LINE
  5
413
100
AcDbEntity
  8
0
370
     0
100
AcDbLine
 10
108.750000
 20
143.750000
 11
109.700000
 21
143.250000
  0
LINE
  5
416
100
AcDbEntity
  8
0
370
     0
100
AcDbLine
 10
110.200000
 20
145.775000
 11
109.500000
 21
142.300000
  0
LINE
  5
419
100
AcDbEntity
  8
0
370
     0
100
AcDbLine
 10
106.600000
 20
142.875000
 11
109.950000
 21
142.225000
  0
LINE
  5
41c
100
AcDbEntity
  8
0
370
     0
100
AcDbLine
 10
106.550000
 20
142.450000
 11
109.825000
 21
141.850000
  0
LINE
  5
41f
100
AcDbEntity
  8
0
370
     0
100
AcDbLine
 10
109.450000
 20
141.900000
 11
108.800000
 21
138.725000
  0
LINE
  5
422
100
AcDbEntity
  8
0
370
     0
100
AcDbLine
 10
99.825000
 20
137.925000
 11
100.300000
 21
137.300000
  0
LINE
  5
425
100
AcDbEntity
  8
0
370
     0
100
AcDbLine
 10
100.225000
 20
137.075000
 11
99.825000
 21
137.075000
  0
ELLIPSE
  5
428
100
AcDbEntity
  8
0
370
     0
100
AcDbEllipse
 10
99.775000
 20
135.100000
 30
0.000000
 11
1.775000
 21
-0.000000000000000
 31
0.000000
210
0.000000
220
0.000000
230
1.000000
 40
0.929577
 41
4.709321
 42
1.567728
  0
LINE
  5
42b
100
AcDbEntity
  8
0
370
     0
100
AcDbLine
 10
102.700000
 20
133.800000
 11
101.800000
 21
133.800000
  0
LINE
  5
42e
100
AcDbEntity
  8
0
370
     0
100
AcDbLine
 10
101.725000
 20
133.950000
 11
102.125000
 21
134.550000
  0
LINE
  5
431
100
AcDbEntity
  8
0
370
     0
100
AcDbLine
 10
102.800000
 20
133.950000
 11
102.300000
 21
134.600000
  0
ELLIPSE
  5
434
100
AcDbEntity
  8
0
370
     0
100
AcDbEllipse
 10
99.600000
 20
135.050000
 30
0.000000
 11
1.450000
 21
-0.000000000000000
 31
0.000000
210
0.000000
220
0.000000
230
1.000000
 40
0.913793
 41
5.151107
 42
1.132078
  0
LINE
  5
437
100
AcDbEntity
  8
0
370
     0
100
AcDbLine
 10
100.075000
 20
136.200000
 11
100.075000
 21
133.950000
  0
LINE
  5
43a
100
AcDbEntity
  8
0
370
     0
100
AcDbLine
 10
100.275000
 20
135.600000
 11
100.275000
 21
135.275000
  0
LINE
  5
43d
100
AcDbEntity
  8
0
370
     0
100
AcDbLine
 10
100.275000
 20
135.275000
 11
100.550000
 21
135.250000
  0
LINE
  5
440
100
AcDbEntity
  8
0
370
     0
100
AcDbLine
 10
100.675000
 20
135.400000
 11
100.675000
 21
135.525000
  0
LINE
  5
443
100
AcDbEntity
  8
0
370
     0
100
AcDbLine
 10
100.650000
 20
135.625000
 11
100.525000
 21
135.700000
  0
LINE
  5
446
100
AcDbEntity
  8
0
370
     0
100
AcDbLine
 10
100.400000
 20
134.875000
 11
100.550000
 21
134.875000
  0
LINE
  5
449
100
AcDbEntity
  8
0
370
     0
100
AcDbLine
 10
100.675000
 20
134.750000
 11
100.675000
 21
134.550000
  0
LINE
  5
44c
100
AcDbEntity
  8
0
370
     0
100
AcDbLine
 10
100.675000
 20
134.550000
 11
100.525000
 21
134.400000
  0
LINE
  5
44f
100
AcDbEntity
  8
0
370
     0
100
AcDbLine
 10
100.300000
 20
134.475000
 11
100.300000
 21
134.750000
  0
LINE
  5
452
100
AcDbEntity
  8
0
370
     0
100
AcDbLine
 10
94.775000
 20
141.125000
 11
94.775000
 21
140.625000
  0
LINE
  5
455
100
AcDbEntity
  8
0
370
     0
100
AcDbLine
 10
94.775000
 20
140.625000
 11
95.050000
 21
140.450000
  0
LINE
  5
458
100
AcDbEntity
  8
0
370
     0
100
AcDbLine
 10
95.150000
 20
140.325000
 11
95.150000
 21
139.875000
  0
ELLIPSE
  5
45b
100
AcDbEntity
  8
0
370
     0
100
AcDbEllipse
 10
95.100000
 20
133.025000
 30
0.000000
 11
5.450000
 21
-0.00000000000000
 31
0.000000
210
0.000000
220
0.000000
230
1.000000
 40
0.922018
 41
1.699651
 42
3.132389
  0
ELLIPSE
  5
45e
100
AcDbEntity
  8
0
370
     0
100
AcDbEllipse
 10
94.975000
 20
133.075000
 30
0.000000
 11
5.800000
 21
-0.00000000000000
 31
0.000000
210
0.000000
220
0.000000
230
1.000000
 40
0.922414
 41
1.788622
 42
3.181476
  0
ELLIPSE
  5
461
100
AcDbEntity
  8
0
370
     0
100
AcDbEllipse
 10
96.100000
 20
138.275000
 30
0.000000
 11
1.975000
 21
-0.000000000000000
 31
0.000000
210
0.000000
220
0.000000
230
1.000000
 40
0.924051
 41
2.073942
 42
2.978991
  0
LINE
  5
464
100
AcDbEntity
  8
0
370
     0
100
AcDbLine
 10
89.150000
 20
132.850000
 11
88.775000
 21
132.625000
  0
LINE
  5
467
100
AcDbEntity
  8
0
370
     0
100
AcDbLine
 10
88.775000
 20
132.625000
 11
88.775000
 21
132.400000
  0
LINE
  5
46a
100
AcDbEntity
  8
0
370
     0
100
AcDbLine
 10
88.775000
 20
132.400000
 11
88.975000
 21
132.225000
  0
LINE
  5
46d
100
AcDbEntity
  8
0
370
     0
100
AcDbLine
 10
88.975000
 20
132.225000
 11
88.950000
 21
132.050000
  0
LINE
  5
470
100
AcDbEntity
  8
0
370
     0
100
AcDbLine
 10
88.950000
 20
132.050000
 11
88.725000
 21
131.900000
  0
LINE
  5
473
100
AcDbEntity
  8
0
370
     0
100
AcDbLine
 10
88.725000
 20
131.900000
 11
88.825000
 21
131.550000
  0
LINE
  5
476
100
AcDbEntity
  8
0
370
     0
100
AcDbLine
 10
88.825000
 20
131.550000
 11
89.025000
 21
131.475000
  0
LINE
  5
479
100
AcDbEntity
  8
0
370
     0
100
AcDbLine
 10
89.025000
 20
131.475000
 11
88.975000
 21
130.625000
  0
LINE
  5
47c
100
AcDbEntity
  8
0
370
     0
100
AcDbLine
 10
88.975000
 20
130.625000
 11
88.575000
 21
130.325000
  0
LINE
  5
47f
100
AcDbEntity
  8
0
370
     0
100
AcDbLine
 10
88.575000
 20
130.325000
 11
81.775000
 21
129.725000
  0
LINE
  5
482
100
AcDbEntity
  8
0
370
     0
100
AcDbLine
 10
95.975000
 20
132.075000
 11
95.975000
 21
116.200000
  0
LINE
  5
485
100
AcDbEntity
  8
0
370
     0
100
AcDbLine
 10
95.525000
 20
118.225000
 11
95.350000
 21
118.225000
  0
LINE
  5
488
100
AcDbEntity
  8
0
370
     0
100
AcDbLine
 10
95.350000
 20
118.225000
 11
95.350000
 21
117.550000
  0
LINE
  5
48b
100
AcDbEntity
  8
0
370
     0
100
AcDbLine
 10
95.350000
 20
117.550000
 11
93.825000
 21
117.550000
  0
LINE
  5
48e
100
AcDbEntity
  8
0
370
     0
100
AcDbLine
 10
93.825000
 20
117.550000
 11
93.825000
 21
116.675000
  0
LINE
  5
491
100
AcDbEntity
  8
0
370
     0
100
AcDbLine
 10
93.825000
 20
116.675000
 11
95.975000
 21
116.675000
  0
LINE
  5
494
100
AcDbEntity
  8
0
370
     0
100
AcDbLine
 10
93.900000
 20
116.675000
 11
93.900000
 21
116.250000
  0
LINE
  5
497
100
AcDbEntity
  8
0
370
     0
100
AcDbLine
 10
93.775000
 20
116.200000
 11
96.725000
 21
116.200000
  0
LINE
  5
49a
100
AcDbEntity
  8
0
370
     0
100
AcDbLine
 10
93.775000
 20
116.200000
 11
93.775000
 21
115.475000
  0
LINE
  5
49d
100
AcDbEntity
  8
0
370
     0
100
AcDbLine
 10
93.775000
 20
115.475000
 11
97.500000
 21
115.475000
  0
LINE
  5
4a0
100
AcDbEntity
  8
0
370
     0
100
AcDbLine
 10
97.500000
 20
115.475000
 11
97.500000
 21
112.850000
  0
LINE
  5
4a3
100
AcDbEntity
  8
0
370
     0
100
AcDbLine
 10
102.675000
 20
112.850000
 11
102.675000
 21
115.550000
  0
LINE
  5
4a6
100
AcDbEntity
  8
0
370
     0
100
AcDbLine
 10
99.825000
 20
115.550000
 11
105.800000
 21
115.550000
  0
LINE
  5
4a9
100
AcDbEntity
  8
0
370
     0
100
AcDbLine
 10
105.800000
 20
115.550000
 11
105.800000
 21
116.275000
  0
LINE
  5
4ac
100
AcDbEntity
  8
0
370
     0
100
AcDbLine
 10
101.175000
 20
115.550000
 11
101.175000
 21
112.650000
  0
LINE
  5
4af
100
AcDbEntity
  8
0
370
     0
100
AcDbLine
 10
98.025000
 20
115.025000
 11
98.025000
 21
113.650000
  0
LINE
  5
4b2
100
AcDbEntity
  8
0
370
     0
100
AcDbLine
 10
97.375000
 20
117.975000
 11
99.825000
 21
117.975000
  0
LINE
  5
4b5
100
AcDbEntity
  8
0
370
     0
100
AcDbLine
 10
97.375000
 20
117.975000
 11
97.425000
 21
117.825000
  0
LINE
  5
4b8
100
AcDbEntity
  8
0
370
     0
100
AcDbLine
 10
98.250000
 20
117.975000
 11
98.450000
 21
117.425000
  0
LINE
  5
4bb
100
AcDbEntity
  8
0
370
     0
100
AcDbLine
 10
81.175000
 20
129.800000
 11
81.525000
 21
129.825000
  0
LINE
  5
4be
100
AcDbEntity
  8
0
370
     0
100
AcDbLine
 10
81.525000
 20
129.825000
 11
81.575000
 21
129.800000
  0
LINE
  5
4c1
100
AcDbEntity
  8
0
370
     0
100
AcDbLine
 10
81.000000
 20
129.250000
 11
88.775000
 21
130.025000
  0
LINE
  5
4c4
100
AcDbEntity
  8
0
370
     0
100
AcDbLine
 10
82.200000
 20
125.400000
 11
89.600000
 21
125.400000
  0
LINE
  5
4c7
100
AcDbEntity
  8
0
370
     0
100
AcDbLine
 10
81.500000
 20
125.225000
 11
81.825000
 21
125.175000
  0
LINE
  5
4ca
100
AcDbEntity
  8
0
370
     0
100
AcDbLine
 10
81.825000
 20
125.175000
 11
82.000000
 21
125.325000
  0
LINE
  5
4cd
100
AcDbEntity
  8
0
370
     0
100
AcDbLine
 10
94.025000
 20
132.225000
 11
95.050000
 21
132.575000
  0
LINE
  5
4d0
100
AcDbEntity
  8
0
370
     0
100
AcDbLine
 10
95.400000
 20
132.550000
 11
95.975000
 21
132.075000
  0
LINE
  5
4d3
100
AcDbEntity
  8
0
370
     0
100
AcDbLine
 10
95.975000
 20
132.075000
 11
99.825000
 21
132.075000
  0
LINE
  5
4d6
100
AcDbEntity
  8
0
370
     0
100
AcDbLine
 10
96.625000
 20
131.400000
 11
99.825000
 21
131.400000
  0
LINE
  5
4d9
100
AcDbEntity
  8
0
370
     0
100
AcDbLine
 10
95.975000
 20
131.125000
 11
99.825000
 21
131.125000
  0
LINE
  5
4dc
100
AcDbEntity
  8
0
370
     0
100
AcDbLine
 10
98.400000
 20
131.125000
 11
98.400000
 21
126.775000
  0
LINE
  5
4df
100
AcDbEntity
  8
0
370
     0
100
AcDbLine
 10
96.550000
 20
126.775000
 11
99.825000
 21
126.775000
  0
LINE
  5
4e2
100
AcDbEntity
  8
0
370
     0
100
AcDbLine
 10
96.425000
 20
129.325000
 11
96.425000
 21
126.925000
  0
LINE
  5
4e5
100
AcDbEntity
  8
0
370
     0
100
AcDbLine
 10
95.975000
 20
131.125000
 11
96.425000
 21
129.325000
  0
LINE
  5
4e8
100
AcDbEntity
  8
0
370
     0
100
AcDbLine
 10
96.425000
 20
129.325000
 11
96.800000
 21
129.325000
  0
LINE
  5
4eb
100
AcDbEntity
  8
0
370
     0
100
AcDbLine
 10
96.800000
 20
129.325000
 11
96.375000
 21
131.125000
  0
LINE
  5
4ee
100
AcDbEntity
  8
0
370
     0
100
AcDbLine
 10
94.850000
 20
131.775000
 11
95.475000
 21
131.475000
  0
LINE
  5
4f1
100
AcDbEntity
  8
0
370
     0
100
AcDbLine
 10
93.850000
 20
129.750000
 11
94.325000
 21
131.775000
  0
LINE
  5
4f4
100
AcDbEntity
  8
0
370
     0
100
AcDbLine
 10
99.825000
 20
118.275000
 11
104.325000
 21
118.275000
  0
LINE
  5
4f7
100
AcDbEntity
  8
0
370
     0
100
AcDbLine
 10
103.300000
 20
117.975000
 11
103.300000
 21
117.550000
  0
LINE
  5
4fa
100
AcDbEntity
  8
0
370
     0
100
AcDbLine
 10
99.825000
 20
117.550000
 11
105.800000
 21
117.550000
  0
LINE
  5
4fd
100
AcDbEntity
  8
0
370
     0
100
AcDbLine
 10
105.800000
 20
117.550000
 11
105.800000
 21
116.750000
  0
LINE
  5
500
100
AcDbEntity
  8
0
370
     0
100
AcDbLine
 10
99.825000
 20
116.275000
 11
105.800000
 21
116.275000
  0
LINE
  5
503
100
AcDbEntity
  8
0
370
     0
100
AcDbLine
 10
103.250000
 20
115.550000
 11
103.250000
 21
115.100000
  0
LINE
  5
506
100
AcDbEntity
  8
0
370
     0
100
AcDbLine
 10
103.375000
 20
115.025000
 11
104.850000
 21
115.025000
  0
LINE
  5
509
100
AcDbEntity
  8
0
370
     0
100
AcDbLine
 10
104.975000
 20
115.100000
 11
104.975000
 21
115.550000
  0
LINE
  5
50c
100
AcDbEntity
  8
0
370
     0
100
AcDbLine
 10
89.675000
 20
131.625000
 11
89.775000
 21
129.975000
  0
ELLIPSE
  5
50f
100
AcDbEntity
  8
0
370
     0
100
AcDbEllipse
 10
90.225000
 20
133.000000
 30
0.000000
 11
0.625000
 21
-0.000000000000000
 31
0.000000
210
0.000000
220
0.000000
230
1.000000
 40
0.920000
 41
3.012738
 42
4.629554
  0
ELLIPSE
  5
512
100
AcDbEntity
  8
0
370
     0
100
AcDbEllipse
 10
89.225000
 20
131.700000
 30
0.000000
 11
0.450000
 21
-0.000000000000000
 31
0.000000
210
0.000000
220
0.000000
230
1.000000
 40
0.944444
 41
6.111379
 42
2.212000
  0
LINE
  5
515
100
AcDbEntity
  8
0
370
     0
100
AcDbLine
 10
89.475000
 20
132.050000
 11
89.300000
 21
130.525000
  0
ELLIPSE
  5
518
100
AcDbEntity
  8
0
370
     0
100
AcDbEllipse
 10
88.725000
 20
130.550000
 30
0.000000
 11
0.625000
 21
-0.000000000000000
 31
0.000000
210
0.000000
220
0.000000
230
1.000000
 40
0.920000
 41
4.795224
 42
6.240234
  0
LINE
  5
51b
100
AcDbEntity
  8
0
370
     0
100
AcDbLine
 10
90.625000
 20
120.800000
 11
92.500000
 21
120.800000
  0
LINE
  5
51e
100
AcDbEntity
  8
0
370
     0
100
AcDbLine
 10
92.500000
 20
120.800000
 11
92.500000
 21
120.250000
  0
LINE
  5
521
100
AcDbEntity
  8
0
370
     0
100
AcDbLine
 10
92.425000
 20
120.225000
 11
90.725000
 21
120.225000
  0
LINE
  5
524
100
AcDbEntity
  8
0
370
     0
100
AcDbLine
 10
90.625000
 20
120.250000
 11
90.625000
 21
120.800000
  0
LINE
  5
527
100
AcDbEntity
  8
0
370
     0
100
AcDbLine
 10
91.225000
 20
120.800000
 11
91.225000
 21
120.225000
  0
LINE
  5
52a
100
AcDbEntity
  8
0
370
     0
100
AcDbLine
 10
91.225000
 20
121.250000
 11
91.950000
 21
121.250000
  0
LINE
  5
52d
100
AcDbEntity
  8
0
370
     0
100
AcDbLine
 10
92.000000
 20
125.400000
 11
92.625000
 21
125.400000
  0
LINE
  5
530
100
AcDbEntity
  8
0
370
     0
100
AcDbLine
 10
92.625000
 20
125.400000
 11
92.625000
 21
126.400000
  0
LINE
  5
533
100
AcDbEntity
  8
0
370
     0
100
AcDbLine
 10
91.175000
 20
125.325000
 11
90.850000
 21
125.325000
  0
LINE
  5
536
100
AcDbEntity
  8
0
370
     0
100
AcDbLine
 10
91.175000
 20
125.325000
 11
91.575000
 21
125.625000
  0
LINE
  5
539
100
AcDbEntity
  8
0
370
     0
100
AcDbLine
 10
91.575000
 20
125.625000
 11
92.000000
 21
125.400000
  0
LINE
  5
53c
100
AcDbEntity
  8
0
370
     0
100
AcDbLine
 10
90.250000
 20
123.500000
 11
90.300000
 21
123.950000
  0
LINE
  5
53f
100
AcDbEntity
  8
0
370
     0
100
AcDbLine
 10
93.575000
 20
124.175000
 11
93.775000
 21
123.925000
  0
LINE
  5
542
100
AcDbEntity
  8
0
370
     0
100
AcDbLine
 10
93.775000
 20
123.925000
 11
94.900000
 21
123.925000
  0
LINE
  5
545
100
AcDbEntity
  8
0
370
     0
100
AcDbLine
 10
94.900000
 20
123.925000
 11
95.525000
 21
124.325000
  0
ELLIPSE
  5
548
100
AcDbEntity
  8
0
370
     0
100
AcDbEllipse
 10
93.650000
 20
120.150000
 30
0.000000
 11
2.225000
 21
-0.000000000000000
 31
0.000000
210
0.000000
220
0.000000
230
1.000000
 40
0.921348
 41
0.564505
 42
1.420466
  0
ELLIPSE
  5
54b
100
AcDbEntity
  8
0
370
     0
100
AcDbEllipse
 10
94.150000
 20
123.575000
 30
0.000000
 11
1.525000
 21
-0.000000000000000
 31
0.000000
210
0.000000
220
0.000000
230
1.000000
 40
0.918033
 41
3.193748
 42
4.598874
  0
ELLIPSE
  5
54e
100
AcDbEntity
  8
0
370
     0
100
AcDbEllipse
 10
88.725000
 20
130.825000
 30
0.000000
 11
5.450000
 21
-0.00000000000000
 31
0.000000
210
0.000000
220
0.000000
230
1.000000
 40
0.922018
 41
4.899535
 42
0.082835
  0
ELLIPSE
  5
551
100
AcDbEntity
  8
0
370
     0
100
AcDbEllipse
 10
94.575000
 20
131.550000
 30
0.000000
 11
0.375000
 21
-0.0000000000000000
 31
0.000000
210
0.000000
220
0.000000
230
1.000000
 40
0.933333
 41
0.717903
 42
2.374602
  0
ELLIPSE
  5
554
100
AcDbEntity
  8
0
370
     0
100
AcDbEllipse
 10
89.100000
 20
130.700000
 30
0.000000
 11
5.750000
 21
-0.00000000000000
 31
0.000000
210
0.000000
220
0.000000
230
1.000000
 40
0.921739
 41
5.402680
 42
0.049087
  0
ELLIPSE
  5
557
100
AcDbEntity
  8
0
370
     0
100
AcDbEllipse
 10
103.425000
 20
137.875000
 30
0.000000
 11
2.850000
 21
-0.000000000000000
 31
0.000000
210
0.000000
220
0.000000
230
1.000000
 40
0.921053
 41
6.191146
 42
0.862097
  0
ELLIPSE
  5
55a
100
AcDbEntity
  8
0
370
     0
100
AcDbEllipse
 10
105.475000
 20
140.400000
 30
0.000000
 11
0.625000
 21
-0.000000000000000
 31
0.000000
210
0.000000
220
0.000000
230
1.000000
 40
0.920000
 41
1.690447
 42
4.374913
  0
ELLIPSE
  5
55d
100
AcDbEntity
  8
0
370
     0
100
AcDbEllipse
 10
104.900000
 20
142.725000
 30
0.000000
 11
1.950000
 21
-0.000000000000000
 31
0.000000
210
0.000000
220
0.000000
230
1.000000
 40
0.923077
 41
4.976234
 42
6.086836
  0
ELLIPSE
  5
560
100
AcDbEntity
  8
0
370
     0
100
AcDbEllipse
 10
103.375000
 20
141.800000
 30
0.000000
 11
4.600000
 21
-0.00000000000000
 31
0.000000
210
0.000000
220
0.000000
230
1.000000
 40
0.918478
 41
5.384273
 42
0.079767
  0
ELLIPSE
  5
563
100
AcDbEntity
  8
0
370
     0
100
AcDbEllipse
 10
102.800000
 20
142.050000
 30
0.000000
 11
5.550000
 21
-0.00000000000000
 31
0.000000
210
0.000000
220
0.000000
230
1.000000
 40
0.923423
 41
5.387341
 42
0.003068
  0
ELLIPSE
  5
566
100
AcDbEntity
  8
0
370
     0
100
AcDbEllipse
 10
104.200000
 20
139.675000
 30
0.000000
 11
4.725000
 21
-0.00000000000000
 31
0.000000
210
0.000000
220
0.000000
230
1.000000
 40
0.920635
 41
5.083612
 42
6.065360
  0
ELLIPSE
  5
569
100
AcDbEntity
  8
0
370
     0
100
AcDbEllipse
 10
104.150000
 20
139.600000
 30
0.000000
 11
5.125000
 21
-0.00000000000000
 31
0.000000
210
0.000000
220
0.000000
230
1.000000
 40
0.921951
 41
5.034525
 42
6.065360
  0
ELLIPSE
  5
56c
100
AcDbEntity
  8
0
370
     0
100
AcDbEllipse
 10
103.325000
 20
151.950000
 30
0.000000
 11
0.650000
 21
-0.000000000000000
 31
0.000000
210
0.000000
220
0.000000
230
1.000000
 40
0.923077
 41
2.178253
 42
5.344389
  0
ELLIPSE
  5
56f
100
AcDbEntity
  8
0
370
     0
100
AcDbEllipse
 10
108.450000
 20
150.900000
 30
0.000000
 11
0.575000
 21
-0.000000000000000
 31
0.000000
210
0.000000
220
0.000000
230
1.000000
 40
0.913043
 41
4.442408
 42
0.604388
  0
ELLIPSE
  5
572
100
AcDbEntity
  8
0
370
     0
100
AcDbEllipse
 10
104.500000
 20
145.675000
 30
0.000000
 11
7.525000
 21
-0.00000000000000
 31
0.000000
210
0.000000
220
0.000000
230
1.000000
 40
0.923588
 41
0.932660
 42
1.779418
  0
ELLIPSE
  5
575
100
AcDbEntity
  8
0
370
     0
100
AcDbEllipse
 10
104.500000
 20
145.200000
 30
0.000000
 11
6.825000
 21
-0.00000000000000
 31
0.000000
210
0.000000
220
0.000000
230
1.000000
 40
0.923077
 41
0.978680
 42
1.690447
  0
ELLIPSE
  5
578
100
AcDbEntity
  8
0
370
     0
100
AcDbEllipse
 10
101.150000
 20
150.425000
 30
0.000000
 11
1.900000
 21
-0.000000000000000
 31
0.000000
210
0.000000
220
0.000000
230
1.000000
 40
0.921053
 41
1.862253
 42
5.586758
  0
ELLIPSE
  5
57b
100
AcDbEntity
  8
0
370
     0
100
AcDbEllipse
 10
104.200000
 20
144.300000
 30
0.000000
 11
9.225000
 21
-0.00000000000000
 31
0.000000
210
0.000000
220
0.000000
230
1.000000
 40
0.921409
 41
0.392699
 42
1.972699
  0
LINE
  5
57e
100
AcDbEntity
  8
0
370
     0
100
AcDbLine
 10
109.375000
 20
150.200000
 11
108.875000
 21
148.000000
  0
ELLIPSE
  5
581
100
AcDbEntity
  8
0
370
     0
100
AcDbEllipse
 10
90.975000
 20
135.750000
 30
0.000000
 11
24.950000
 21
-0.00000000000000
 31
0.000000
210
0.000000
220
0.000000
230
1.000000
 40
0.921844
 41
0.444854
 42
0.690291
  0
LINE
  5
584
100
AcDbEntity
  8
0
370
     0
100
AcDbLine
 10
110.600000
 20
145.750000
 11
112.875000
 21
145.025000
  0
LINE
  5
587
100
AcDbEntity
  8
0
370
     0
100
AcDbLine
 10
110.525000
 20
145.350000
 11
113.800000
 21
144.400000
  0
ELLIPSE
  5
58a
100
AcDbEntity
  8
0
370
     0
100
AcDbEllipse
 10
113.625000
 20
143.875000
 30
0.000000
 11
0.625000
 21
-0.000000000000000
 31
0.000000
210
0.000000
220
0.000000
230
1.000000
 40
0.920000
 41
0.497010
 42
1.270136
  0
ELLIPSE
  5
58d
100
AcDbEntity
  8
0
370
     0
100
AcDbEllipse
 10
113.100000
 20
145.400000
 30
0.000000
 11
0.450000
 21
-0.000000000000000
 31
0.000000
210
0.000000
220
0.000000
230
1.000000
 40
0.944444
 41
4.193903
 42
0.659612
  0
ELLIPSE
  5
590
100
AcDbEntity
  8
0
370
     0
100
AcDbEllipse
 10
104.575000
 20
145.050000
 30
0.000000
 11
6.500000
 21
-0.00000000000000
 31
0.000000
210
0.000000
220
0.000000
230
1.000000
 40
0.923077
 41
0.926524
 42
1.718058
  0
ELLIPSE
  5
593
100
AcDbEntity
  8
0
370
     0
100
AcDbEllipse
 10
103.750000
 20
150.425000
 30
0.000000
 11
0.625000
 21
-0.000000000000000
 31
0.000000
210
0.000000
220
0.000000
230
1.000000
 40
0.920000
 41
1.770214
 42
5.203263
  0
ELLIPSE
  5
596
100
AcDbEntity
  8
0
370
     0
100
AcDbEllipse
 10
104.075000
 20
145.325000
 30
0.000000
 11
4.600000
 21
-0.00000000000000
 31
0.000000
210
0.000000
220
0.000000
230
1.000000
 40
0.918478
 41
0.570641
 42
1.905204
  0
ELLIPSE
  5
599
100
AcDbEntity
  8
0
370
     0
100
AcDbEllipse
 10
104.500000
 20
145.775000
 30
0.000000
 11
4.475000
 21
-0.00000000000000
 31
0.000000
210
0.000000
220
0.000000
230
1.000000
 40
0.921788
 41
0.641204
 42
1.665903
  0
LINE
  5
59c
100
AcDbEntity
  8
0
370
     0
100
AcDbLine
 10
108.625000
 20
149.450000
 11
108.550000
 21
148.375000
  0
ARC
  5
59f
100
AcDbEntity
  8
0
370
     0
100
AcDbCircle
 10
108.300000
 20
148.375000
 40
0.200000
100
AcDbArc
 50
215.531250
 51
360.000000
  0
ELLIPSE
  5
5a2
100
AcDbEntity
  8
0
370
     0
100
AcDbEllipse
 10
104.825000
 20
132.400000
 30
0.000000
 11
0.450000
 21
-0.000000000000000
 31
0.000000
210
0.000000
220
0.000000
230
1.000000
 40
0.944444
 41
4.709321
 42
6.053088
  0
ELLIPSE
  5
5a5
100
AcDbEntity
  8
0
370
     0
100
AcDbEllipse
 10
137.375000
 20
144.750000
 30
0.000000
 11
20.425000
 21
-0.00000000000000
 31
0.000000
210
0.000000
220
0.000000
230
1.000000
 40
0.922889
 41
3.712234
 42
4.439340
  0
ELLIPSE
  5
5a8
100
AcDbEntity
  8
0
370
     0
100
AcDbEllipse
 10
136.925000
 20
144.375000
 30
0.000000
 11
20.300000
 21
-0.00000000000000
 31
0.000000
210
0.000000
220
0.000000
230
1.000000
 40
0.922414
 41
3.709166
 42
4.424001
  0
ELLIPSE
  5
5ab
100
AcDbEntity
  8
0
370
     0
100
AcDbEllipse
 10
135.425000
 20
143.675000
 30
0.000000
 11
20.850000
 21
-0.00000000000000
 31
0.000000
210
0.000000
220
0.000000
230
1.000000
 40
0.922062
 41
3.742913
 42
4.466952
  0
ELLIPSE
  5
5ae
100
AcDbEntity
  8
0
370
     0
100
AcDbEllipse
 10
136.000000
 20
144.525000
 30
0.000000
 11
22.425000
 21
-0.00000000000000
 31
0.000000
210
0.000000
220
0.000000
230
1.000000
 40
0.921962
 41
3.736777
 42
4.473088
  0
ELLIPSE
  5
5b1
100
AcDbEntity
  8
0
370
     0
100
AcDbEllipse
 10
130.675000
 20
125.775000
 30
0.000000
 11
0.875000
 21
-0.000000000000000
 31
0.000000
210
0.000000
220
0.000000
230
1.000000
 40
0.914286
 41
4.414797
 42
0.914253
  0
ELLIPSE
  5
5b4
100
AcDbEntity
  8
0
370
     0
100
AcDbEllipse
 10
132.250000
 20
125.950000
 30
0.000000
 11
0.825000
 21
-0.000000000000000
 31
0.000000
210
0.000000
220
0.000000
230
1.000000
 40
0.939394
 41
0.125786
 42
2.052466
  0
ELLIPSE
  5
5b7
100
AcDbEntity
  8
0
370
     0
100
AcDbEllipse
 10
131.775000
 20
124.875000
 30
0.000000
 11
1.150000
 21
-0.000000000000000
 31
0.000000
210
0.000000
220
0.000000
230
1.000000
 40
0.934783
 41
3.540428
 42
4.939418
  0
ELLIPSE
  5
5ba
100
AcDbEntity
  8
0
370
     0
100
AcDbEllipse
 10
126.275000
 20
112.900000
 30
0.000000
 11
13.100000
 21
-0.00000000000000
 31
0.000000
210
0.000000
220
0.000000
230
1.000000
 40
0.923664
 41
0.690291
 42
1.113670
  0
ELLIPSE
  5
5bd
100
AcDbEntity
  8
0
370
     0
100
AcDbEllipse
 10
126.325000
 20
113.150000
 30
0.000000
 11
15.500000
 21
-0.00000000000000
 31
0.000000
210
0.000000
220
0.000000
230
1.000000
 40
0.922581
 41
0.604388
 42
1.122874
  0
ELLIPSE
  5
5c0
100
AcDbEntity
  8
0
370
     0
100
AcDbEllipse
 10
123.725000
 20
109.275000
 30
0.000000
 11
18.525000
 21
-0.00000000000000
 31
0.000000
210
0.000000
220
0.000000
230
1.000000
 40
0.923077
 41
0.797670
 42
1.079922
  0
ELLIPSE
  5
5c3
100
AcDbEntity
  8
0
370
     0
100
AcDbEllipse
 10
119.450000
 20
105.575000
 30
0.000000
 11
25.650000
 21
-0.00000000000000
 31
0.000000
210
0.000000
220
0.000000
230
1.000000
 40
0.922027
 41
0.782330
 42
0.997088
  0
ELLIPSE
  5
5c6
100
AcDbEntity
  8
0
370
     0
100
AcDbEllipse
 10
133.025000
 20
124.800000
 30
0.000000
 11
0.775000
 21
-0.000000000000000
 31
0.000000
210
0.000000
220
0.000000
230
1.000000
 40
0.935484
 41
1.132078
 42
3.822680
  0
ELLIPSE
  5
5c9
100
AcDbEntity
  8
0
370
     0
100
AcDbEllipse
 10
137.025000
 20
121.975000
 30
0.000000
 11
0.625000
 21
-0.000000000000000
 31
0.000000
210
0.000000
220
0.000000
230
1.000000
 40
0.920000
 41
4.025166
 42
0.497010
  0
LINE
  5
5cc
100
AcDbEntity
  8
0
370
     0
100
AcDbLine
 10
96.875000
 20
116.325000
 11
97.200000
 21
116.750000
  0
LINE
  5
5cf
100
AcDbEntity
  8
0
370
     0
100
AcDbLine
 10
97.500000
 20
116.625000
 11
97.950000
 21
117.050000
  0
LINE
  5
5d2
100
AcDbEntity
  8
0
370
     0
100
AcDbLine
 10
97.825000
 20
116.275000
 11
98.275000
 21
116.750000
  0
LINE
  5
5d5
100
AcDbEntity
  8
0
370
     0
100
AcDbLine
 10
98.075000
 20
116.600000
 11
98.400000
 21
115.875000
  0
LINE
  5
5d8
100
AcDbEntity
  8
0
370
     0
100
AcDbLine
 10
98.400000
 20
115.325000
 11
98.150000
 21
115.225000
  0
ELLIPSE
  5
5db
100
AcDbEntity
  8
0
370
     0
100
AcDbEllipse
 10
97.625000
 20
116.400000
 30
0.000000
 11
0.250000
 21
-0.0000000000000000
 31
0.000000
210
0.000000
220
0.000000
230
1.000000
 40
0.900000
 41
2.086214
 42
5.678797
  0
LINE
  5
5de
100
AcDbEntity
  8
0
370
     0
100
AcDbLine
 10
99.275000
 20
116.750000
 11
99.275000
 21
116.250000
  0
LINE
  5
5e1
100
AcDbEntity
  8
0
370
     0
100
AcDbLine
 10
99.600000
 20
115.875000
 11
98.400000
 21
115.875000
  0
LINE
  5
5e4
100
AcDbEntity
  8
0
370
     0
100
AcDbLine
 10
99.825000
 20
116.750000
 11
105.800000
 21
116.750000
  0
LINE
  5
5e7
100
AcDbEntity
  8
0
370
     0
100
AcDbLine
 10
105.525000
 20
116.750000
 11
105.525000
 21
116.275000
  0
LINE
  5
5ea
100
AcDbEntity
  8
0
370
     0
100
AcDbLine
 10
103.375000
 20
118.075000
 11
104.900000
 21
118.075000
  0
LINE
  5
5ed
100
AcDbEntity
  8
0
370
     0
100
AcDbLine
 10
105.025000
 20
117.975000
 11
105.025000
 21
117.550000
  0
LINE
  5
5f0
100
AcDbEntity
  8
0
370
     0
100
AcDbLine
 10
104.525000
 20
118.075000
 11
104.525000
 21
117.550000
  0
LINE
  5
5f3
100
AcDbEntity
  8
0
370
     0
100
AcDbLine
 10
99.275000
 20
117.725000
 11
99.275000
 21
117.275000
  0
LINE
  5
5f6
100
AcDbEntity
  8
0
370
     0
100
AcDbLine
 10
99.275000
 20
117.725000
 11
99.825000
 21
117.725000
  0
LINE
  5
5f9
100
AcDbEntity
  8
0
370
     0
100
AcDbLine
 10
99.600000
 20
117.850000
 11
99.600000
 21
114.500000
  0
ELLIPSE
  5
5fc
100
AcDbEntity
  8
0
370
     0
100
AcDbEllipse
 10
90.150000
 20
124.875000
 30
0.000000
 11
0.750000
 21
-0.000000000000000
 31
0.000000
210
0.000000
220
0.000000
230
1.000000
 40
0.900000
 41
0.862097
 42
2.159845
  0
LINE
  5
5ff
100
AcDbEntity
  8
0
370
     0
100
AcDbLine
 10
108.200000
 20
145.975000
 11
108.200000
 21
146.800000
  0
LINE
  5
602
100
AcDbEntity
  8
0
370
     0
100
AcDbLine
 10
109.000000
 20
145.525000
 11
109.775000
 21
145.975000
  0
LINE
  5
605
100
AcDbEntity
  8
0
370
     0
100
AcDbLine
 10
108.200000
 20
145.975000
 11
109.000000
 21
145.525000
  0
LINE
  5
608
100
AcDbEntity
  8
0
370
     0
100
AcDbLine
 10
109.775000
 20
146.800000
 11
109.000000
 21
147.225000
  0
LINE
  5
60b
100
AcDbEntity
  8
0
370
     0
100
AcDbLine
 10
108.200000
 20
146.800000
 11
109.000000
 21
147.225000
  0
LINE
  5
60e
100
AcDbEntity
  8
0
370
     0
100
AcDbLine
 10
109.775000
 20
145.975000
 11
109.775000
 21
146.800000
  0
ELLIPSE
  5
611
100
AcDbEntity
  8
0
370
     0
100
AcDbEllipse
 10
109.000000
 20
146.400000
 30
0.000000
 11
0.775000
 21
-0.000000000000000
 31
0.000000
210
0.000000
220
0.000000
230
1.000000
 40
0.935484
 41
0.000000
 42
6.283185
  0
LINE
  5
614
100
AcDbEntity
  8
0
370
     0
100
AcDbLine
 10
100.225000
 20
150.050000
 11
100.225000
 21
150.900000
  0
LINE
  5
617
100
AcDbEntity
  8
0
370
     0
100
AcDbLine
 10
101.025000
 20
149.625000
 11
101.800000
 21
150.050000
  0
LINE
  5
61a
100
AcDbEntity
  8
0
370
     0
100
AcDbLine
 10
100.225000
 20
150.050000
 11
101.025000
 21
149.625000
  0
LINE
  5
61d
100
AcDbEntity
  8
0
370
     0
100
AcDbLine
 10
101.800000
 20
150.900000
 11
101.025000
 21
151.350000
  0
LINE
  5
620
100
AcDbEntity
  8
0
370
     0
100
AcDbLine
 10
100.225000
 20
150.900000
 11
101.025000
 21
151.350000
  0
LINE
  5
623
100
AcDbEntity
  8
0
370
     0
100
AcDbLine
 10
101.800000
 20
150.050000
 11
101.800000
 21
150.900000
  0
ELLIPSE
  5
626
100
AcDbEntity
  8
0
370
     0
100
AcDbEllipse
 10
101.025000
 20
150.500000
 30
0.000000
 11
0.775000
 21
-0.000000000000000
 31
0.000000
210
0.000000
220
0.000000
230
1.000000
 40
0.935484
 41
0.000000
 42
6.283185
  0
ELLIPSE
  5
629
100
AcDbEntity
  8
0
370
     0
100
AcDbEllipse
 10
104.000000
 20
127.325000
 30
0.000000
 11
0.425000
 21
-0.000000000000000
 31
0.000000
210
0.000000
220
0.000000
230
1.000000
 40
0.882353
 41
5.519263
 42
0.714835
  0
LINE
  5
62c
100
AcDbEntity
  8
0
370
     0
100
AcDbLine
 10
104.325000
 20
126.500000
 11
104.325000
 21
122.875000
  0
ELLIPSE
  5
62f
100
AcDbEntity
  8
0
370
     0
100
AcDbEllipse
 10
104.000000
 20
126.775000
 30
0.000000
 11
0.425000
 21
-0.000000000000000
 31
0.000000
210
0.000000
220
0.000000
230
1.000000
 40
0.882353
 41
5.519263
 42
0.763922
  0
LINE
  5
632
100
AcDbEntity
  8
0
370
     0
100
AcDbLine
 10
99.825000
 20
122.875000
 11
104.325000
 21
122.875000
  0
LINE
  5
635
100
AcDbEntity
  8
0
370
     0
100
AcDbLine
 10
99.825000
 20
122.350000
 11
104.325000
 21
122.350000
  0
LINE
  5
638
100
AcDbEntity
  8
0
370
     0
100
AcDbLine
 10
99.825000
 20
121.775000
 11
104.325000
 21
121.775000
  0
ELLIPSE
  5
63b
100
AcDbEntity
  8
0
370
     0
100
AcDbEllipse
 10
104.000000
 20
122.575000
 30
0.000000
 11
0.425000
 21
-0.000000000000000
 31
0.000000
210
0.000000
220
0.000000
230
1.000000
 40
0.882353
 41
5.620506
 42
0.763922
  0
ELLIPSE
  5
63e
100
AcDbEntity
  8
0
370
     0
100
AcDbEllipse
 10
104.000000
 20
122.050000
 30
0.000000
 11
0.425000
 21
-0.000000000000000
 31
0.000000
210
0.000000
220
0.000000
230
1.000000
 40
0.882353
 41
5.519263
 42
0.763922
  0
LINE
  5
641
100
AcDbEntity
  8
0
370
     0
100
AcDbLine
 10
104.325000
 20
121.775000
 11
104.325000
 21
118.075000
  0
ELLIPSE
  5
644
100
AcDbEntity
  8
0
370
     0
100
AcDbEllipse
 10
104.775000
 20
131.475000
 30
0.000000
 11
0.450000
 21
-0.000000000000000
 31
0.000000
210
0.000000
220
0.000000
230
1.000000
 40
0.944444
 41
1.567728
 42
3.141593
  0
ELLIPSE
  5
647
100
AcDbEntity
  8
0
370
     0
100
AcDbEllipse
 10
136.000000
 20
120.375000
 30
0.000000
 11
0.450000
 21
-0.000000000000000
 31
0.000000
210
0.000000
220
0.000000
230
1.000000
 40
0.944444
 41
6.166603
 42
0.613592
  0
ELLIPSE
  5
64a
100
AcDbEntity
  8
0
370
     0
100
AcDbEllipse
 10
109.825000
 20
150.125000
 30
0.000000
 11
0.450000
 21
-0.000000000000000
 31
0.000000
210
0.000000
220
0.000000
230
1.000000
 40
0.944444
 41
0.659612
 42
2.969787
  0
ELLIPSE
  5
64d
100
AcDbEntity
  8
0
370
     0
100
AcDbEllipse
 10
108.175000
 20
149.525000
 30
0.000000
 11
0.450000
 21
-0.000000000000000
 31
0.000000
210
0.000000
220
0.000000
230
1.000000
 40
0.944444
 41
6.111379
 42
0.855961
  0
ELLIPSE
  5
650
100
AcDbEntity
  8
0
370
     0
100
AcDbEllipse
 10
93.650000
 20
138.725000
 30
0.000000
 11
0.500000
 21
-0.000000000000000
 31
0.000000
210
0.000000
220
0.000000
230
1.000000
 40
0.900000
 41
4.862719
 42
5.930370
  0
ARC
  5
653
100
AcDbEntity
  8
0
370
     0
100
AcDbCircle
 10
95.025000
 20
141.125000
 40
0.200000
100
AcDbArc
 50
90.000000
 51
180.000000
  0
ARC
  5
656
100
AcDbEntity
  8
0
370
     0
100
AcDbCircle
 10
100.225000
 20
137.225000
 40
0.125000
100
AcDbArc
 50
270.000000
 51
45.000000
  0
ARC
  5
659
100
AcDbEntity
  8
0
370
     0
100
AcDbCircle
 10
102.225000
 20
134.525000
 40
0.125000
100
AcDbArc
 50
45.000000
 51
143.140625
  0
ARC
  5
65c
100
AcDbEntity
  8
0
370
     0
100
AcDbCircle
 10
101.800000
 20
133.875000
 40
0.125000
100
AcDbArc
 50
135.000000
 51
270.000000
  0
ARC
  5
65f
100
AcDbEntity
  8
0
370
     0
100
AcDbCircle
 10
102.700000
 20
133.875000
 40
0.125000
100
AcDbArc
 50
270.000000
 51
36.859375
  0
ARC
  5
662
100
AcDbEntity
  8
0
370
     0
100
AcDbCircle
 10
100.200000
 20
136.200000
 40
0.125000
100
AcDbArc
 50
78.687500
 51
180.000000
  0
ARC
  5
665
100
AcDbEntity
  8
0
370
     0
100
AcDbCircle
 10
100.200000
 20
133.950000
 40
0.125000
100
AcDbArc
 50
180.000000
 51
281.312500
  0
ARC
  5
668
100
AcDbEntity
  8
0
370
     0
100
AcDbCircle
 10
100.400000
 20
134.750000
 40
0.125000
100
AcDbArc
 50
90.000000
 51
180.000000
  0
ARC
  5
66b
100
AcDbEntity
  8
0
370
     0
100
AcDbCircle
 10
100.400000
 20
134.475000
 40
0.125000
100
AcDbArc
 50
180.000000
 51
315.000000
  0
ARC
  5
66e
100
AcDbEntity
  8
0
370
     0
100
AcDbCircle
 10
100.550000
 20
134.750000
 40
0.125000
100
AcDbArc
 50
360.000000
 51
90.000000
  0
ARC
  5
671
100
AcDbEntity
  8
0
370
     0
100
AcDbCircle
 10
100.550000
 20
135.525000
 40
0.125000
100
AcDbArc
 50
360.000000
 51
36.859375
  0
ARC
  5
674
100
AcDbEntity
  8
0
370
     0
100
AcDbCircle
 10
100.550000
 20
135.400000
 40
0.125000
100
AcDbArc
 50
270.000000
 51
360.000000
  0
ARC
  5
677
100
AcDbEntity
  8
0
370
     0
100
AcDbCircle
 10
100.425000
 20
135.600000
 40
0.125000
100
AcDbArc
 50
36.859375
 51
180.000000
  0
ARC
  5
67a
100
AcDbEntity
  8
0
370
     0
100
AcDbCircle
 10
95.025000
 20
140.325000
 40
0.125000
100
AcDbArc
 50
360.000000
 51
45.000000
  0
ARC
  5
67d
100
AcDbEntity
  8
0
370
     0
100
AcDbCircle
 10
94.400000
 20
138.150000
 40
0.125000
100
AcDbArc
 50
270.000000
 51
360.000000
  0
ARC
  5
680
100
AcDbEntity
  8
0
370
     0
100
AcDbCircle
 10
95.300000
 20
139.675000
 40
0.125000
100
AcDbArc
 50
291.812500
 51
360.000000
  0
ARC
  5
683
100
AcDbEntity
  8
0
370
     0
100
AcDbCircle
 10
95.300000
 20
141.250000
 40
0.125000
100
AcDbArc
 50
360.000000
 51
90.000000
  0
ELLIPSE
  5
686
100
AcDbEntity
  8
0
370
     0
100
AcDbEllipse
 10
94.525000
 20
131.100000
 30
0.000000
 11
0.375000
 21
-0.0000000000000000
 31
0.000000
210
0.000000
220
0.000000
230
1.000000
 40
0.933333
 41
5.826059
 42
2.684466
  0
ARC
  5
689
100
AcDbEntity
  8
0
370
     0
100
AcDbCircle
 10
95.400000
 20
131.350000
 40
0.125000
100
AcDbArc
 50
360.000000
 51
45.000000
  0
ELLIPSE
  5
68c
100
AcDbEntity
  8
0
370
     0
100
AcDbEllipse
 10
95.175000
 20
132.275000
 30
0.000000
 11
0.375000
 21
-0.0000000000000000
 31
0.000000
210
0.000000
220
0.000000
230
1.000000
 40
0.933333
 41
0.917321
 42
1.942020
  0
ARC
  5
68f
100
AcDbEntity
  8
0
370
     0
100
AcDbCircle
 10
81.200000
 20
129.575000
 40
0.200000
100
AcDbArc
 50
98.140625
 51
180.000000
  0
ARC
  5
692
100
AcDbEntity
  8
0
370
     0
100
AcDbCircle
 10
81.500000
 20
125.450000
 40
0.200000
100
AcDbArc
 50
194.031250
 51
270.000000
  0
ARC
  5
695
100
AcDbEntity
  8
0
370
     0
100
AcDbCircle
 10
81.750000
 20
129.950000
 40
0.200000
100
AcDbArc
 50
215.531250
 51
277.140625
  0
ARC
  5
698
100
AcDbEntity
  8
0
370
     0
100
AcDbCircle
 10
82.200000
 20
125.225000
 40
0.200000
100
AcDbArc
 50
90.000000
 51
150.265625
  0
ARC
  5
69b
100
AcDbEntity
  8
0
370
     0
100
AcDbCircle
 10
92.875000
 20
126.400000
 40
0.200000
100
AcDbArc
 50
129.812500
 51
180.000000
  0
ARC
  5
69e
100
AcDbEntity
  8
0
370
     0
100
AcDbCircle
 10
90.850000
 20
125.525000
 40
0.200000
100
AcDbArc
 50
215.531250
 51
270.000000
  0
ARC
  5
6a1
100
AcDbEntity
  8
0
370
     0
100
AcDbCircle
 10
89.600000
 20
125.625000
 40
0.200000
100
AcDbArc
 50
270.000000
 51
309.812500
  0
LINE
  5
6a4
100
AcDbEntity
  8
0
370
     0
100
AcDbLine
 10
93.575000
 20
124.175000
 11
90.550000
 21
124.175000
  0
ARC
  5
6a7
100
AcDbEntity
  8
0
370
     0
100
AcDbCircle
 10
90.550000
 20
123.950000
 40
0.200000
100
AcDbArc
 50
90.000000
 51
180.000000
  0
LINE
  5
6aa
100
AcDbEntity
  8
0
370
     0
100
AcDbLine
 10
90.250000
 20
123.500000
 11
92.650000
 21
123.500000
  0
LINE
  5
6ad
100
AcDbEntity
  8
0
370
     0
100
AcDbLine
 10
90.625000
 20
124.175000
 11
92.500000
 21
124.175000
  0
LINE
  5
6b0
100
AcDbEntity
  8
0
370
     0
100
AcDbLine
 10
92.500000
 20
123.500000
 11
92.500000
 21
122.975000
  0
LINE
  5
6b3
100
AcDbEntity
  8
0
370
     0
100
AcDbLine
 10
92.425000
 20
122.925000
 11
90.725000
 21
122.925000
  0
LINE
  5
6b6
100
AcDbEntity
  8
0
370
     0
100
AcDbLine
 10
90.625000
 20
122.975000
 11
90.625000
 21
123.500000
  0
LINE
  5
6b9
100
AcDbEntity
  8
0
370
     0
100
AcDbLine
 10
90.625000
 20
122.975000
 11
90.725000
 21
122.925000
  0
LINE
  5
6bc
100
AcDbEntity
  8
0
370
     0
100
AcDbLine
 10
92.500000
 20
122.975000
 11
92.425000
 21
122.925000
  0
LINE
  5
6bf
100
AcDbEntity
  8
0
370
     0
100
AcDbLine
 10
90.625000
 20
120.250000
 11
90.725000
 21
120.225000
  0
LINE
  5
6c2
100
AcDbEntity
  8
0
370
     0
100
AcDbLine
 10
92.500000
 20
120.250000
 11
92.425000
 21
120.225000
  0
LINE
  5
6c5
100
AcDbEntity
  8
0
370
     0
100
AcDbLine
 10
91.950000
 20
120.800000
 11
91.950000
 21
120.225000
  0
LINE
  5
6c8
100
AcDbEntity
  8
0
370
     0
100
AcDbLine
 10
91.225000
 20
120.800000
 11
91.225000
 21
125.325000
  0
LINE
  5
6cb
100
AcDbEntity
  8
0
370
     0
100
AcDbLine
 10
91.950000
 20
120.800000
 11
91.950000
 21
125.400000
  0
LINE
  5
6ce
100
AcDbEntity
  8
0
370
     0
100
AcDbLine
 10
90.625000
 20
124.175000
 11
92.500000
 21
124.175000
  0
LINE
  5
6d1
100
AcDbEntity
  8
0
370
     0
100
AcDbLine
 10
92.500000
 20
124.175000
 11
92.500000
 21
124.675000
  0
LINE
  5
6d4
100
AcDbEntity
  8
0
370
     0
100
AcDbLine
 10
92.425000
 20
124.750000
 11
90.725000
 21
124.750000
  0
LINE
  5
6d7
100
AcDbEntity
  8
0
370
     0
100
AcDbLine
 10
90.625000
 20
124.675000
 11
90.625000
 21
124.175000
  0
LINE
  5
6da
100
AcDbEntity
  8
0
370
     0
100
AcDbLine
 10
90.625000
 20
124.675000
 11
90.725000
 21
124.750000
  0
LINE
  5
6dd
100
AcDbEntity
  8
0
370
     0
100
AcDbLine
 10
92.500000
 20
124.675000
 11
92.425000
 21
124.750000
  0
LINE
  5
6e0
100
AcDbEntity
  8
0
370
     0
100
AcDbLine
 10
96.425000
 20
126.925000
 11
96.550000
 21
126.775000
  0
LINE
  5
6e3
100
AcDbEntity
  8
0
370
     0
100
AcDbLine
 10
96.625000
 20
131.400000
 11
96.625000
 21
131.125000
  0
LINE
  5
6e6
100
AcDbEntity
  8
0
370
     0
100
AcDbLine
 10
103.300000
 20
117.975000
 11
103.375000
 21
118.075000
  0
LINE
  5
6e9
100
AcDbEntity
  8
0
370
     0
100
AcDbLine
 10
104.900000
 20
118.075000
 11
105.025000
 21
117.975000
  0
ELLIPSE
  5
6ec
100
AcDbEntity
  8
0
370
     0
100
AcDbEllipse
 10
100.300000
 20
119.075000
 30
0.000000
 11
3.225000
 21
-0.000000000000000
 31
0.000000
210
0.000000
220
0.000000
230
1.000000
 40
0.922481
 41
3.574175
 42
4.034369
  0
LINE
  5
6ef
100
AcDbEntity
  8
0
370
     0
100
AcDbLine
 10
98.250000
 20
116.750000
 11
99.600000
 21
116.750000
  0
LINE
  5
6f2
100
AcDbEntity
  8
0
370
     0
100
AcDbLine
 10
99.275000
 20
116.250000
 11
99.600000
 21
116.250000
  0
LINE
  5
6f5
100
AcDbEntity
  8
0
370
     0
100
AcDbLine
 10
98.700000
 20
117.275000
 11
99.825000
 21
117.275000
  0
ARC
  5
6f8
100
AcDbEntity
  8
0
370
     0
100
AcDbCircle
 10
98.700000
 20
117.500000
 40
0.200000
100
AcDbArc
 50
200.546875
 51
270.000000
  0
LINE
  5
6fb
100
AcDbEntity
  8
0
370
     0
100
AcDbLine
 10
99.275000
 20
117.400000
 11
99.600000
 21
117.400000
  0
LINE
  5
6fe
100
AcDbEntity
  8
0
370
     0
100
AcDbLine
 10
99.600000
 20
117.850000
 11
99.825000
 21
117.850000
  0
LINE
  5
701
100
AcDbEntity
  8
0
370
     0
100
AcDbLine
 10
97.625000
 20
116.750000
 11
97.200000
 21
116.750000
  0
ARC
  5
704
100
AcDbEntity
  8
0
370
     0
100
AcDbCircle
 10
96.725000
 20
116.450000
 40
0.200000
100
AcDbArc
 50
270.000000
 51
333.437500
  0
LINE
  5
707
100
AcDbEntity
  8
0
370
     0
100
AcDbLine
 10
103.250000
 20
115.100000
 11
103.375000
 21
115.025000
  0
LINE
  5
70a
100
AcDbEntity
  8
0
370
     0
100
AcDbLine
 10
104.850000
 20
115.025000
 11
104.975000
 21
115.100000
  0
ARC
  5
70d
100
AcDbEntity
  8
0
370
     0
100
AcDbCircle
 10
98.275000
 20
115.025000
 40
0.200000
100
AcDbArc
 50
129.812500
 51
180.000000
  0
LINE
  5
710
100
AcDbEntity
  8
0
370
     0
100
AcDbLine
 10
98.400000
 20
115.325000
 11
99.600000
 21
115.325000
  0
LINE
  5
713
100
AcDbEntity
  8
0
370
     0
100
AcDbLine
 10
99.825000
 20
114.000000
 11
99.125000
 21
114.000000
  0
LINE
  5
716
100
AcDbEntity
  8
0
370
     0
100
AcDbLine
 10
99.075000
 20
114.450000
 11
99.825000
 21
114.450000
  0
LINE
  5
719
100
AcDbEntity
  8
0
370
     0
100
AcDbLine
 10
99.075000
 20
114.025000
 11
99.125000
 21
114.000000
  0
LINE
  5
71c
100
AcDbEntity
  8
0
370
     0
100
AcDbLine
 10
99.475000
 20
114.450000
 11
99.475000
 21
114.000000
  0
LINE
  5
71f
100
AcDbEntity
  8
0
370
     0
100
AcDbLine
 10
99.075000
 20
114.025000
 11
99.075000
 21
114.450000
  0
LINE
  5
722
100
AcDbEntity
  8
0
370
     0
100
AcDbLine
 10
99.825000
 20
136.775000
 11
99.450000
 21
132.075000
  0
LINE
  5
725
100
AcDbEntity
  8
0
370
     0
100
AcDbLine
 10
99.825000
 20
126.250000
 11
98.950000
 21
126.250000
  0
LINE
  5
728
100
AcDbEntity
  8
0
370
     0
100
AcDbLine
 10
98.900000
 20
126.775000
 11
99.825000
 21
126.775000
  0
LINE
  5
72b
100
AcDbEntity
  8
0
370
     0
100
AcDbLine
 10
98.900000
 20
126.275000
 11
98.950000
 21
126.250000
  0
LINE
  5
72e
100
AcDbEntity
  8
0
370
     0
100
AcDbLine
 10
99.400000
 20
126.775000
 11
99.400000
 21
126.250000
  0
LINE
  5
731
100
AcDbEntity
  8
0
370
     0
100
AcDbLine
 10
98.900000
 20
126.275000
 11
98.900000
 21
126.775000
  0
LINE
  5
734
100
AcDbEntity
  8
0
370
     0
100
AcDbLine
 10
99.400000
 20
126.250000
 11
99.400000
 21
125.875000
  0
LINE
  5
737
100
AcDbEntity
  8
0
370
     0
100
AcDbLine
 10
99.400000
 20
125.875000
 11
99.825000
 21
125.875000
  0
LINE
  5
73a
100
AcDbEntity
  8
0
370
     0
100
AcDbLine
 10
103.750000
 20
118.075000
 11
103.750000
 21
117.550000
  0
LINE
  5
73d
100
AcDbEntity
  8
0
370
     0
100
AcDbLine
 10
104.500000
 20
115.000000
 11
104.500000
 21
115.550000
  0
LINE
  5
740
100
AcDbEntity
  8
0
370
     0
100
AcDbLine
 10
103.700000
 20
115.000000
 11
103.700000
 21
115.550000
  0
LINE
  5
743
100
AcDbEntity
  8
0
370
     0
100
AcDbLine
 10
96.225000
 20
114.950000
 11
94.725000
 21
114.950000
  0
LINE
  5
746
100
AcDbEntity
  8
0
370
     0
100
AcDbLine
 10
95.850000
 20
114.950000
 11
95.850000
 21
115.525000
  0
LINE
  5
749
100
AcDbEntity
  8
0
370
     0
100
AcDbLine
 10
96.300000
 20
115.100000
 11
96.225000
 21
114.950000
  0
LINE
  5
74c
100
AcDbEntity
  8
0
370
     0
100
AcDbLine
 10
96.300000
 20
115.475000
 11
96.300000
 21
115.100000
  0
LINE
  5
74f
100
AcDbEntity
  8
0
370
     0
100
AcDbLine
 10
95.050000
 20
114.950000
 11
95.050000
 21
115.525000
  0
LINE
  5
752
100
AcDbEntity
  8
0
370
     0
100
AcDbLine
 10
94.725000
 20
114.950000
 11
94.600000
 21
115.100000
  0
LINE
  5
755
100
AcDbEntity
  8
0
370
     0
100
AcDbLine
 10
94.600000
 20
115.100000
 11
94.600000
 21
115.525000
  0
LINE
  5
758
100
AcDbEntity
  8
0
370
     0
100
AcDbLine
 10
95.975000
 20
129.975000
 11
95.975000
 21
120.950000
  0
LINE
  5
75b
100
AcDbEntity
  8
0
370
     0
100
AcDbLine
 10
96.550000
 20
122.000000
 11
98.900000
 21
122.000000
  0
LINE
  5
75e
100
AcDbEntity
  8
0
370
     0
100
AcDbLine
 10
96.550000
 20
121.900000
 11
95.975000
 21
122.000000
  0
LINE
  5
761
100
AcDbEntity
  8
0
370
     0
100
AcDbLine
 10
95.975000
 20
122.000000
 11
96.550000
 21
122.125000
  0
LINE
  5
764
100
AcDbEntity
  8
0
370
     0
100
AcDbLine
 10
95.975000
 20
122.000000
 11
96.550000
 21
122.000000
  0
LWPOLYLINE
  5
767
100
AcDbEntity
  8
0
100
AcDbPolyline
 90
     4
 70
     1
 43
0.200000
 10
58.500000
 20
116.375000
 10
137.575000
 20
116.375000
 10
137.575000
 20
111.975000
 10
58.500000
 20
111.975000
  0
LWPOLYLINE
  5
772
100
AcDbEntity
  8
0
100
AcDbPolyline
 90
     4
 70
     1
 43
0.400000
 10
63.400000
 20
198.975000
 10
128.875000
 20
198.975000
 10
118.400000
 20
181.050000
 10
74.150000
 20
181.500000
  0
ARC
  5
77d
100
AcDbEntity
  8
0
370
    40
100
AcDbCircle
 10
97.025000
 20
189.575000
 40
6.275000
100
AcDbArc
 50
12.421875
 51
150.890625
  0
ARC
  5
780
100
AcDbEntity
  8
0
370
    40
100
AcDbCircle
 10
97.025000
 20
189.575000
 40
6.275000
100
AcDbArc
 50
213.625000
 51
351.750000
  0
LWPOLYLINE
  5
783
100
AcDbEntity
  8
0
100
AcDbPolyline
 90
     4
 70
     0
 43
0.400000
 10
88.975000
 20
192.700000
 10
88.975000
 20
198.075000
 10
105.125000
 20
198.075000
 10
105.125000
 20
193.075000
  0
LWPOLYLINE
  5
78e
100
AcDbEntity
  8
0
100
AcDbPolyline
 90
     4
 70
     0
 43
0.400000
 10
105.125000
 20
186.700000
 10
105.125000
 20
181.925000
 10
88.975000
 20
181.925000
 10
88.975000
 20
185.975000
  0
ARC
  5
799
100
AcDbEntity
  8
0
370
    40
100
AcDbCircle
 10
97.050000
 20
189.525000
 40
4.925000
100
AcDbArc
 50
16.500000
 51
350.062500
  0
SPLINE
  5
79c
100
AcDbEntity
  8
0
370
    40
100
AcDbSpline
210
0.000000
220
0.000000
230
1.000000
 70
     9
 71
     3
 72
    29
 73
    25
 74
     0
 42
0.0000001
 43
0.0000001
 44
0.0000000001
 40
0.000000
 40
0.000000
 40
0.000000
 40
0.000000
 40
38.175000
 40
38.175000
 40
38.175000
 40
39.412437
 40
39.412437
 40
39.412437
 40
39.912437
 40
39.912437
 40
39.912437
 40
41.149874
 40
41.149874
 40
41.149874
 40
79.324874
 40
79.324874
 40
79.324874
 40
80.562311
 40
80.562311
 40
80.562311
 40
81.062311
 40
81.062311
 40
81.062311
 40
82.299747
 40
82.299747
 40
82.299747
 40
82.299747
 10
97.450000
 20
190.925000
 30
0.000000
 10
97.450000
 20
190.925000
 30
0.000000
 10
135.625000
 20
190.925000
 30
0.000000
 10
135.625000
 20
190.925000
 30
0.000000
 10
136.100000
 20
190.925000
 30
0.000000
 10
136.500000
 20
190.525000
 30
0.000000
 10
136.500000
 20
190.050000
 30
0.000000
 10
136.500000
 20
190.050000
 30
0.000000
 10
136.500000
 20
189.550000
 30
0.000000
 10
136.500000
 20
189.550000
 30
0.000000
 10
136.500000
 20
189.075000
 30
0.000000
 10
136.100000
 20
188.675000
 30
0.000000
 10
135.625000
 20
188.675000
 30
0.000000
 10
135.625000
 20
188.675000
 30
0.000000
 10
97.450000
 20
188.675000
 30
0.000000
 10
97.450000
 20
188.675000
 30
0.000000
 10
96.975000
 20
188.675000
 30
0.000000
 10
96.575000
 20
189.075000
 30
0.000000
 10
96.575000
 20
189.550000
 30
0.000000
 10
96.575000
 20
189.550000
 30
0.000000
 10
96.575000
 20
190.050000
 30
0.000000
 10
96.575000
 20
190.050000
 30
0.000000
 10
96.575000
 20
190.525000
 30
0.000000
 10
96.975000
 20
190.925000
 30
0.000000
 10
97.450000
 20
190.925000
 30
0.000000
  0
SPLINE
  5
79f
100
AcDbEntity
  8
0
370
    40
100
AcDbSpline
210
0.000000
220
0.000000
230
1.000000
 70
     8
 71
     3
 72
    26
 73
    22
 74
     0
 42
0.0000001
 43
0.0000001
 44
0.0000000001
 40
0.000000
 40
0.000000
 40
0.000000
 40
0.000000
 40
0.908639
 40
0.908639
 40
0.908639
 40
7.933639
 40
7.933639
 40
7.933639
 40
12.176280
 40
12.176280
 40
12.176280
 40
12.901280
 40
12.901280
 40
12.901280
 40
17.143920
 40
17.143920
 40
17.143920
 40
24.168920
 40
24.168920
 40
24.168920
 40
24.823233
 40
24.823233
 40
24.823233
 40
24.823233
 10
91.800000
 20
186.100000
 30
0.000000
 10
91.500000
 20
186.000000
 30
0.000000
 10
91.225000
 20
185.975000
 30
0.000000
 10
90.900000
 20
185.975000
 30
0.000000
 10
90.900000
 20
185.975000
 30
0.000000
 10
83.875000
 20
185.975000
 30
0.000000
 10
83.875000
 20
185.975000
 30
0.000000
 10
82.225000
 20
185.975000
 30
0.000000
 10
80.875000
 20
187.325000
 30
0.000000
 10
80.875000
 20
188.975000
 30
0.000000
 10
80.875000
 20
188.975000
 30
0.000000
 10
80.875000
 20
189.700000
 30
0.000000
 10
80.875000
 20
189.700000
 30
0.000000
 10
80.875000
 20
191.350000
 30
0.000000
 10
82.225000
 20
192.700000
 30
0.000000
 10
83.875000
 20
192.700000
 30
0.000000
 10
83.875000
 20
192.700000
 30
0.000000
 10
90.900000
 20
192.700000
 30
0.000000
 10
90.900000
 20
192.700000
 30
0.000000
 10
91.100000
 20
192.700000
 30
0.000000
 10
91.350000
 20
192.650000
 30
0.000000
 10
91.550000
 20
192.625000
 30
0.000000
  0
ARC
  5
7a2
100
AcDbEntity
  8
0
370
    40
100
AcDbCircle
 10
97.025000
 20
189.575000
 40
6.275000
100
AcDbArc
 50
150.890625
 51
213.625000
  0
LWPOLYLINE
  5
7a5
100
AcDbEntity
  8
0
100
AcDbPolyline
 90
     4
 70
     1
 43
0.400000
 10
103.050000
 20
193.075000
 10
110.100000
 20
193.075000
 10
110.100000
 20
191.350000
 10
103.050000
 20
191.350000
  0
LWPOLYLINE
  5
7b0
100
AcDbEntity
  8
0
100
AcDbPolyline
 90
     4
 70
     1
 43
0.400000
 10
103.150000
 20
188.200000
 10
110.225000
 20
188.200000
 10
110.225000
 20
186.700000
 10
103.150000
 20
186.700000
  0
LWPOLYLINE
  5
7bb
100
AcDbEntity
  8
0
100
AcDbPolyline
 90
     4
 70
     1
 43
0.400000
 10
0.000000
 20
257.000000
 10
190.000000
 20
257.000000
 10
190.000000
 20
0.000000
 10
0.000000
 20
0.000000
  0
LINE
  5
7c6
100
AcDbEntity
  8
0
370
    40
100
AcDbLine
 10
123.700000
 20
137.700000
 11
139.875000
 21
153.875000
  0
LWPOLYLINE
  5
7c9
100
AcDbEntity
  8
0
100
AcDbPolyline
 90
     3
 70
     0
 43
0.400000
 10
124.825000
 20
140.475000
 10
123.700000
 20
137.700000
 10
126.450000
 20
138.850000
  0
MTEXT
  5
7d2
100
AcDbEntity
  8
0
100
AcDbMText
 10
144.275000
 20
155.925000
 40
2.775000
 41
37.000000
 71
     1
 72
     5
  1
\fＭＳ Ｐ明朝|b0|i0|c128|p18;\T1.0200;□手押しポンプ\fＭＳ Ｐ明朝|b1|i0|c128|p18;\P\fＭＳ Ｐ明朝|b0|i0|c128|p18;通称「がちゃっぽん」\P東邦工業製　\PＴ３２ＤＦ\fＭＳ Ｐ明朝|b1|i0|c128|p18;\P\fＭＳ Ｐ明朝|b0|i0|c128|p18;詳細は別図参照
 44
1.011526
 73
     1
  7
BIGFONT
  0
LWPOLYLINE
  5
7d5
100
AcDbEntity
  8
0
100
AcDbPolyline
 90
     4
 70
     1
 43
0.200000
 10
97.400000
 20
25.575000
 10
97.400000
 20
21.925000
 10
94.525000
 20
21.925000
 10
94.525000
 20
25.575000
  0
LWPOLYLINE
  5
7e0
100
AcDbEntity
  8
0
100
AcDbPolyline
 90
     4
 70
     1
 43
0.200000
 10
99.975000
 20
25.175000
 10
99.975000
 20
22.500000
 10
98.325000
 20
22.500000
 10
98.325000
 20
25.175000
  0
LWPOLYLINE
  5
7eb
100
AcDbEntity
  8
0
100
AcDbPolyline
 90
     4
 70
     1
 43
0.200000
 10
98.775000
 20
23.825000
 10
98.775000
 20
23.725000
 10
97.400000
 20
23.725000
 10
97.400000
 20
23.825000
  0
LWPOLYLINE
  5
7f6
100
AcDbEntity
  8
0
  6
CONTINUOUS
 62
   172
100
AcDbPolyline
 90
     4
 70
     1
 43
0.200000
 10
97.125000
 20
21.900000
 10
97.125000
 20
21.225000
 10
94.775000
 20
21.225000
 10
94.775000
 20
21.900000
  0
LWPOLYLINE
  5
801
100
AcDbEntity
  8
0
  6
CONTINUOUS
 62
   172
100
AcDbPolyline
 90
     4
 70
     1
 43
0.200000
 10
97.150000
 20
26.275000
 10
97.150000
 20
25.600000
 10
94.800000
 20
25.600000
 10
94.800000
 20
26.275000
  0
MTEXT
  5
80c
100
AcDbEntity
  8
0
100
AcDbMText
 10
155.150000
 20
56.125000
 40
3.168750
 41
33.800000
 71
     1
 72
     5
  1
\fＭＳ 明朝|b0|i0|c128|p17;\T1.0200;□ステンレス架台\P□スチール架台
 44
0.966489
 73
     1
  7
BIGFONT
  0
LINE
  5
80f
100
AcDbEntity
  8
0
370
    20
100
AcDbLine
 10
71.200000
 20
28.025000
 11
78.375000
 21
109.050000
  0
LINE
  5
812
100
AcDbEntity
  8
0
370
    20
100
AcDbLine
 10
126.075000
 20
28.675000
 11
117.900000
 21
107.400000
  0
LINE
  5
815
100
AcDbEntity
  8
0
370
    20
100
AcDbLine
 10
119.975000
 20
227.850000
 11
82.300000
 21
199.200000
  0
LINE
  5
818
100
AcDbEntity
  8
0
370
    20
100
AcDbLine
 10
113.325000
 20
198.225000
 11
77.050000
 21
229.200000
  0
LINE
  5
81b
100
AcDbEntity
  8
0
370
    20
100
AcDbLine
 10
30.700000
 20
106.750000
 11
48.975000
 21
144.000000
  0
LWPOLYLINE
  5
81e
100
AcDbEntity
  8
0
100
AcDbPolyline
 90
     3
 70
     0
 43
0.200000
 10
30.875000
 20
109.750000
 10
30.700000
 20
106.750000
 10
32.950000
 20
108.750000
  0
MTEXT
  5
827
100
AcDbEntity
  8
0
100
AcDbMText
 10
59.650000
 20
253.875000
 40
3.168750
 41
88.725000
 71
     1
 72
     5
  1
\fＭＳ 明朝|b0|i0|c128|p17;\T1.0200;樽２００年シリーズ　公共事業標準図
 44
0.966489
 73
     1
  7
BIGFONT
  0
MTEXT
  5
82a
100
AcDbEntity
  8
0
100
AcDbMText
 10
19.925000
 20
7.475000
 40
3.168750
 41
264.062500
 71
     1
 72
     5
  1
\fＭＳ 明朝|b0|i0|c128|p17;\T1.0200;問い合わせ先：シップスレインワールド（株）\fTimes New Roman|b0|i0|c0|p18;TEL042-701-1660\fＭＳ 明朝|b0|i0|c128|p17; \fTimes New Roman|b0|i0|c0|p18;FAX042-740-0013\fＭＳ 明朝|b0|i0|c128|p17;\P
 44
0.966489
 73
     1
  7
BIGFONT
  0
ENDSEC
  0
SECTION
  2
OBJECTS
  0
DICTIONARY
  5
835
100
AcDbDictionary
281
     1
  3
ACAD_COLOR
350
836
  3
ACAD_GROUP
350
837
  3
ACAD_LAYOUT
350
838
  3
ACAD_MATERIAL
350
839
  3
ACAD_MLINESTYLE
350
83a
  3
CONTENTDICTIONARY
350
840
  0
DICTIONARY
  5
836
102
{ACAD_REACTORS
330
835
102
}
330
835
100
AcDbDictionary
281
     1
  0
DICTIONARY
  5
837
102
{ACAD_REACTORS
330
835
102
}
330
835
100
AcDbDictionary
281
     1
  3
Layout1
350
841
  3
Layout2
350
842
  3
Model
350
885
  0
DICTIONARY
  5
838
102
{ACAD_REACTORS
330
835
102
}
330
835
100
AcDbDictionary
281
     1
  0
DICTIONARY
  5
839
102
{ACAD_REACTORS
330
835
102
}
330
835
100
AcDbDictionary
281
     1
  0
DICTIONARY
  5
83a
102
{ACAD_REACTORS
330
835
102
}
330
835
100
AcDbDictionary
281
     1
  3
Standard
350
843
  0
DICTIONARY
  5
83b
102
{ACAD_REACTORS
330
835
102
}
330
835
100
AcDbDictionary
281
     1
  0
ACDBDICTIONARYWDFLT
  5
83c
102
{ACAD_REACTORS
330
835
102
}
330
835
100
AcDbDictionary
281
     1
  3
Normal
350
886
100
AcDbDictionaryWithDefault
340
886
  0
DICTIONARY
  5
83d
102
{ACAD_REACTORS
330
835
102
}
330
835
100
AcDbDictionary
281
     1
  3
Standard
350
887
  0
DICTIONARY
  5
83e
102
{ACAD_REACTORS
330
835
102
}
330
835
100
AcDbDictionary
281
     1
  3
CEPSNTYPE
350
845
  3
FINGERPRINTGUID
350
846
  3
HYPERLINKBASE
350
847
  3
INSUNITS
350
848
  3
LAYOUTDICT
350
849
  3
LWETCUNION
350
84a
  3
PLOTSETDICT
350
84b
  3
PLOTSTYLNAMDICT
350
84c
  3
PSVPSCALE
350
84d
  3
PUCSBASE
350
84e
  3
PUCSORGBACK
350
84f
  3
PUCSORGBOTTOM
350
850
  3
PUCSORGFRONT
350
851
  3
PUCSORGLEFT
350
852
  3
PUCSORGRIGHT
350
853
  3
PUCSORGTOP
350
854
  3
PUCSORTHOREF
350
855
  3
PUCSORTHOVIEW
350
856
  3
STYLESHEET
350
857
  3
TSTACKALIGN
350
858
  3
TSTACKSIZE
350
859
  3
UCSBASE
350
85a
  3
UCSORGBACK
350
85b
  3
UCSORGBOTTOM
350
85c
  3
UCSORGFRONT
350
85d
  3
UCSORGLEFT
350
85e
  3
UCSORGRIGHT
350
85f
  3
UCSORGTOP
350
860
  3
UCSORTHOREF
350
861
  3
UCSORTHOVIEW
350
862
  3
VERSIONGUID
350
863
  0
DICTIONARY
  5
83f
102
{ACAD_REACTORS
330
835
102
}
330
835
100
AcDbDictionary
281
     1
  3
CTABLESTYLE
350
864
  3
DIMASSOC
350
865
  3
HIDETEXT
350
866
  3
PROJECTNAME
350
867
  0
LAYOUT
  5
840
102
{ACAD_XDICTIONARY
360
b4b
102
}
102
{ACAD_REACTORS
330
836
102
}
330
836
100
AcDbPlotSettings
  1

  2

  4

  6

 40
0.000000
 41
0.000000
 42
0.000000
 43
0.000000
 44
0.000000
 45
0.000000
 46
0.000000
 47
0.000000
 48
0.000000
 49
0.000000
140
0.000000
141
0.000000
142
1.000000
143
1.000000
 70
   688
 72
     0
 73
     0
 74
     5
  7

 75
    16
147
1.000000
148
0.000000
149
0.000000
100
AcDbLayout
  1
Layout1
 70
     1
 71
     1
 10
0.000000
 20
0.000000
 11
190.000000
 21
257.000000
 12
0.000000
 22
0.000000
 32
0.000000
 14
100000000000000000000.000000
 24
100000000000000000000.000000
 34
100000000000000000000.000000
 15
-100000000000000000000.000000
 25
-100000000000000000000.000000
 35
-100000000000000000000.000000
146
0.000000
 13
0.000000
 23
0.000000
 33
0.000000
 16
1.000000
 26
0.000000
 36
0.000000
 17
0.000000
 27
1.000000
 37
0.000000
 76
     0
330
83a
  0
LAYOUT
  5
841
102
{ACAD_XDICTIONARY
360
b4d
102
}
102
{ACAD_REACTORS
330
836
102
}
330
836
100
AcDbPlotSettings
  1

  2

  4

  6

 40
0.000000
 41
0.000000
 42
0.000000
 43
0.000000
 44
0.000000
 45
0.000000
 46
0.000000
 47
0.000000
 48
0.000000
 49
0.000000
140
0.000000
141
0.000000
142
1.000000
143
1.000000
 70
   688
 72
     0
 73
     0
 74
     5
  7

 75
    16
147
1.000000
148
0.000000
149
0.000000
100
AcDbLayout
  1
Layout2
 70
     1
 71
     2
 10
0.000000
 20
0.000000
 11
190.000000
 21
257.000000
 12
0.000000
 22
0.000000
 32
0.000000
 14
0.000000
 24
0.000000
 34
0.000000
 15
0.000000
 25
0.000000
 35
0.000000
146
0.000000
 13
0.000000
 23
0.000000
 33
0.000000
 16
1.000000
 26
0.000000
 36
0.000000
 17
0.000000
 27
1.000000
 37
0.000000
 76
     0
330
841
  0
LAYOUT
  5
842
102
{ACAD_XDICTIONARY
360
b4f
102
}
102
{ACAD_REACTORS
330
836
102
}
330
836
100
AcDbPlotSettings
  1

  2

  4

  6

 40
0.000000
 41
0.000000
 42
0.000000
 43
0.000000
 44
0.000000
 45
0.000000
 46
0.000000
 47
0.000000
 48
0.000000
 49
0.000000
140
0.000000
141
0.000000
142
1.000000
143
1.000000
 70
  1712
 72
     0
 73
     0
 74
     0
  7

 75
    16
147
1.000000
148
0.000000
149
0.000000
100
AcDbLayout
  1
Model
 70
     1
 71
     0
 10
0.000000
 20
0.000000
 11
190.000000
 21
257.000000
 12
0.000000
 22
0.000000
 32
0.000000
 14
0.000000
 24
0.000000
 34
0.000000
 15
0.000000
 25
0.000000
 35
0.000000
146
0.000000
 13
0.000000
 23
0.000000
 33
0.000000
 16
1.000000
 26
0.000000
 36
0.000000
 17
0.000000
 27
1.000000
 37
0.000000
 76
     0
330
842
  0
MLINESTYLE
  5
843
102
{ACAD_REACTORS
330
842
102
}
330
842
100
AcDbMlineStyle
  2
STANDARD
 70
     0
  3
 
 62
   256
 51
90.000000
 52
90.000000
 71
     2
 49
0.500000
 62
   256
  6
BYLAYER
 49
-0.500000
 62
   256
  6
BYLAYER
  0
ACDBPLACEHOLDER
  5
844
102
{ACAD_REACTORS
330
843
102
}
330
843
  0
DICTIONARY
  5
b4b
100
AcDbDictionary
280
     1
281
     1
  3
ACAD_XREC_ROUNDTRIP
360
b4c
  0
DICTIONARY
  5
b4d
100
AcDbDictionary
280
     1
281
     1
  3
ACAD_XREC_ROUNDTRIP
360
b4e
  0
DICTIONARY
  5
b4f
100
AcDbDictionary
280
     1
281
     1
  3
ACAD_XREC_ROUNDTRIP
360
b50
  0
XRECORD
  5
b4c
102
{ACAD_REACTORS
330
b4b
102
}
330
b4b
100
AcDbXrecord
280
     1
102
SHADEPLOT
 70
     0
102
SHADEPLOTRESLEVEL
 70
     2
102
SHADEPLOTCUSTOMDPI
 70
   300
  0
XRECORD
  5
b4e
102
{ACAD_REACTORS
330
b4d
102
}
330
b4d
100
AcDbXrecord
280
     1
102
SHADEPLOT
 70
     0
102
SHADEPLOTRESLEVEL
 70
     2
102
SHADEPLOTCUSTOMDPI
 70
   300
  0
XRECORD
  5
b50
102
{ACAD_REACTORS
330
b4f
102
}
330
b4f
100
AcDbXrecord
280
     1
102
SHADEPLOT
 70
     0
102
SHADEPLOTRESLEVEL
 70
     2
102
SHADEPLOTCUSTOMDPI
 70
   300
  0
ENDSEC
  0
EOF
